Guitaretab - guitar tabs
Song name
# A B C D E F G H I J K L M N O P Q R S T U V W X Y Z

Smoking Popes - The Corner tab

Tabbed By - XionResolute
Band - The Smoking Popes
Title - The Corner
 
i'm pretty sure this is 100% right 

Intro 
------
e---------------------------------------------------|
B-------8-----8-----8-----8-------------------------|
G-----9-----7-----9-----7---------------------------|
D---9-----9-----9-----9-----------------------------|
A---------------------------------------------------|
E---------------------------------------------------|

Verse
-----
e---------------------------------------------------|
B-------8-----8-----8-----8-------------------------|
G-----9-----7-----9-----7---------------------------| x 3
D---9-----9-----9-----9-----------------------------|
A---------------------------------------------------|
E---------------------------------------------------|
I've made nothing but mistakes
in my life up until now
I was hoping that the golden bird
would pull me out somehow.
And if I could turn back the time
That dragged us to your door

Chorus
------
e---------------------------------------------------|
B-------7-----5-----5-----3-----7-----7-------------|
G-----7-----5-----5-----4-----7-----8---------------| 
D---7-----5-----7-----5-----7-----9-----------------|
A---------------------------------------------------|
E---------------------------------------------------|
I would un-live every minute one by one
'til the killing came undone
'til the killing came undone

Post Chorus
-----------
e---------------------------------------------------|
B-------8-----8-----8-----8-------------------------|
G-----9-----7-----9-----7---------------------------|
D---9-----9-----9-----9-----------------------------|
A---------------------------------------------------|
E---------------------------------------------------|

Verse
-----
e---------------------------------------------------|
B-------8-----8-----8-----8-------------------------|
G-----9-----7-----9-----7---------------------------| x 3
D---9-----9-----9-----9-----------------------------|
A---------------------------------------------------|
E---------------------------------------------------|
Now your picture is forever
Burned into my head
But I wish that it was me there
Lying motionless instead
And if there was a way that I could
Unspill all that blood

Chorus
------
e---------------------------------------------------|
B-------7-----5-----5-----3-----7-----7-------------|
G-----7-----5-----5-----4-----7-----8---------------| 
D---7-----5-----7-----5-----7-----9-----------------|
A---------------------------------------------------|
E---------------------------------------------------|
I would put every drop back in you one by one
'til the killing came undone
'til the killing came undone

Bridge
-------
e---------------------|
B---------------------|
G---99--77--55--------| x 5
D---99--77--55--5555--|
A---77--55--33--5555--|
E---------------3333--|
Close your eyes and you will see
The morning star, I won't follow where you are
I am destined for the corner

e-------------------------------|
B-------------------------------|
G--------------------55555555---|
D--7777--5555--3333--55555555---|
A--7777--5555--3333--33333333---|
E--5555--3333--1111-------------|
And the darkness beyond
And the darkness beyond
[ Tab from: http://www.guitaretab.com/s/smoking-popes/95999.html ]
e---------------------------------------------------|
B-------8-----8-----8-----8-------------------------|
G-----9-----7-----9-----7---------------------------|
D---9-----9-----9-----9-----------------------------|
A---------------------------------------------------|
E---------------------------------------------------|

Verse
-----
e---------------------------------------------------|
B-------8-----8-----8-----8-------------------------|
G-----9-----7-----9-----7---------------------------| x 3
D---9-----9-----9-----9-----------------------------|
A---------------------------------------------------|
E---------------------------------------------------|
Well I knew what I was doing
But I knew not why
I suppose I must have hated someone
Else from days gone by
And if I had another chance to live through that dark night

Chorus
------
e---------------------------------------------------|
B-------7-----5-----5-----3-----7-----7-------------|
G-----7-----5-----5-----4-----7-----8---------------| 
D---7-----5-----7-----5-----7-----9-----------------|
A---------------------------------------------------|
E---------------------------------------------------|
I would un-shoot every bullet one by one
'til the killing came undone
'til the killing came undone

Bridge
-------
e---------------------|
B---------------------|
G---99--77--55--------| x 5
D---99--77--55--5555--|
A---77--55--33--5555--|
E---------------3333--|
Close your eyes and you will see
The morning star, I won't follow where you are
I am destined for the corner

e---------------------------------------|
B---------------------------------------|
G--------------------55555555-77777777--|
D--7777--5555--3333--55555555-77777777--|
A--7777--5555--3333--33333333-55555555--|
E--5555--3333--1111---------------------|
And the darkness beyond
And the darkness beyond

e---------------------------------------------------|
B-------8-----8-----8-----8-------------------------|
G-----9-----7-----9-----7---------------------------|
D---9-----9-----9-----9-----------------------------|
A---------------------------------------------------|
E---------------------------------------------------|

Verse
-----
e---------------------------------------------------|
B-------8-----8-----8-----8-------------------------|
G-----9-----7-----9-----7---------------------------| x 3
D---9-----9-----9-----9-----------------------------|
A---------------------------------------------------|
E---------------------------------------------------|
I'm ashamed of what I've done but I must face it now
And the life that I have taken
I know nothing can replace it now,
But if I had a thousand of my own lives to lay down

Chorus
------
e---------------------------------------------------|
B-------7-----5-----5-----3-----7-----7-------------|
G-----7-----5-----5-----4-----7-----8---------------| 
D---7-----5-----7-----5-----7-----9-----------------|
A---------------------------------------------------|
E---------------------------------------------------|
I would lay them all down for you one by one
'til the killing came undone
'til the killing came undone

Bridge
-------
e---------------------|
B---------------------|
G---99--77--55--------| x 5
D---99--77--55--5555--|
A---77--55--33--5555--|
E---------------3333--|
Close your eyes and you will see
The morning star, I won't follow where you are
I am destined for the corner

e-----------------------------|
B-----------------------------|
G--------------------5555555~-|
D--7777--5555--3333--5555555~-|
A--7777--5555--3333--3333333~-|
E--5555--3333--1111-----------|
And the darkness beyond
And the darkness beyond

Thanks :)
Related for The Corner tab
Advertisement will be closed in 10 seconds