Song name
# A B C D E F G H I J K L M N O P Q R S T U V W X Y Z

Smosh - Legend Of Zelda Rap tab

-------------------------------------------------------------------------------
                             Legend Of Zelda Rap - Smosh
-------------------------------------------------------------------------------
Tabbed by: skatenos1996 (pavlou)
E-mail:rp500prs@hotmail.com

Tuning:standard
Capo: No

e|-------------------------4-6-6-6-6-4-2---4-2---------------2------------------|
B|-------------3-6-6-6-6-6---------------6-----6-6-6-6-4-4-6---6-4-2-2-4-6-6----|
G|---3-3-3-3-3------------------------------------------------------------------|
D|------------------------------------------------------------------------------|
A|------------------------------------------------------------------------------|
E|------------------------------------------------------------------------------|

e|-----------------3---------------------------------------------------------|
B|--4-2-------4-6----6-6-6-6-6-6---------------------------------------------|
G|------5-5-5----------------------------------------------------------------|
D|---------------------------------------------------------------------------|
A|---------------------------------------------------------------------------|
E|---------------------------------------------------------------------------|
Tap to rate this tab
# A B C D E F G H I J K L M N O P Q R S T U V W X Y Z