Song name
# A B C D E F G H I J K L M N O P Q R S T U V W X Y Z

Smut Peddlers - If Youre Gunna Be Dumb tab

Intro

This Part Twice
E|-3-3---3-3----3-3------------|--8-8-----8-8-----8-8------8----------------|
B|-3-3---3-3----3-3------------|--8-8-----8-8-----8-8------8----------------|
G|-----5^-----5^-----5-3---3---|------10^-----10^------8^9------------------|
D|-----------------------5---5-|--------------------------------------------|
A|-----------------------------|--------------------------------------------|
E|-----------------------------|--------------------------------------------|


E|--10-10----10-10-----10-10----10-10----3-3----3---------3-----------------|
B|--10-10----10-10-----10-10----10-10----3-3----3---------3-----------------|
G|-------12^-------12^-------12^-------------5^---5-3---3-------------------|
D|----------------------------------------------------5---------------------|
A|--------------------------------------------------------------------------|
E|--------------------------------------------------------------------------|

Chords are G5 C5 D5
Tap to rate this tab
 
# A B C D E F G H I J K L M N O P Q R S T U V W X Y Z