Song name
# A B C D E F G H I J K L M N O P Q R S T U V W X Y Z

Smut Peddlers - Do The Flop tab

this one is really easy.


e|--------------------------------|
B|--------------------------------|
G|-----------55-6-7---------------|
D|----7-6-5--55-6-7---------------|
A|----7-6-5--33-4-5---------------|
E|----5-4-3-----------------------|

               ---------55-6-7---------------|
               -7-6-5---55-6-7---------------|
               -7-6-5---33-4-5---------------|
               -5-4-3------------------------|
 do this during all the song lol
Tap to rate this tab
# A B C D E F G H I J K L M N O P Q R S T U V W X Y Z