Song name
# A B C D E F G H I J K L M N O P Q R S T U V W X Y Z

Smut Peddlers - Dope Fiend tab

E--------------------------------------------------------|
B--------------------------------------------------------|
G---9-9-9-9--10-10--7-7-7--10----------------------------|
D---9-9-9-9--10-10--7-7-7--10----------------------------|
A---7-7-7-7---8--8--5-5-5---8----------------------------|
E---------------------------------------------repeat-4x--|


E--------------------------------------------------------|
B--------------------------------------------------------|
G--------------------------------------------------------|
D---7-7-7-7--9-9-9-9--10-10--9-9--7-7-7-7----------------|
A---7-7-7-7--9-9-9-9--10-10--9-9--7-7-7-7----------------|
E---5-5-5-5--7-7-7-7---8--8--7-7--5-5-5-5-----repeat-2x--|


E--------------------------------------------------------|
B--------------------------------------------------------|
G---9---7------------------------------------------------|
D---9-9-7-7-slide-9-9-9-9--------------------------------|
A---7-9-5-7-slide-9-9-9-9--------------------------------|
E-----7---5-slide-7-7-7-7---------------------repeat-2x--|

-Jaidon

www.twitter.com/jaidon13

www.youtube.com/jaidon13
Tap to rate this tab
# A B C D E F G H I J K L M N O P Q R S T U V W X Y Z