Song name
# A B C D E F G H I J K L M N O P Q R S T U V W X Y Z

Smut Peddlers - Lets Get Fucked Up tab

Smut Peddlers-Lets Get F**ked Up

				Album: Jackass Soundtrack

				Tabbed by Ty Wright

Regular Tuning

Chorus

e-----------------------------------|
b-----------------------------------|
g-333-4--5-5-5555–8-8-888-----------|
d-333-4--5-5-5555–8-8-888–555555555-|         Let’s Get F**ked Up
a-111-2--3-3-3333–6-6-666–555555555-|
e-------------------------333333333-|

e----------------------------------------------|
b----------------------------------------------|
g-333-4--5-5-5555–8-8-888----------------------|
d-333-4--5-5-5555–8-8-888–12-12-12-12-12-12-12-|      Let’s Get F**ked Up
a-111-2--3-3-3333–6-6-666–12-12-12-12-12-12-12-|
e-------------------------10-10-10-10-10-10-10-|

e-----------------------------------|
b-----------------------------------|
g-333-4--5-5-5555–8-8-888-----------|
d-333-4--5-5-5555–8-8-888–555555555-|         Let’s Get F**ked Up
a-111-2--3-3-3333–6-6-666–555555555-|
e-------------------------333333333-|

e----------------------------------------------|
b----------------------------------------------|
g-333-4--5-5-5555–8-8-888----------------------|
d-333-4--5-5-5555–8-8-888–12-12-12-12-12-12-12-|
a-111-2--3-3-3333–6-6-666–12-12-12-12-12-12-12-|
e-------------------------10-10-10-10-10-10-10-|


Verse


e--------------------------------------------|
b--------------------------------------------|
g-5-5-555-3-3-333-8-8-8--10-101010101010-888-|
d-5-5-555-3-3-333-8-8-8--10-101010101010-888-|                        4x
a-3-3-333-1-1-111-6-6-6--8--8-8-8-8-8-8--666-|
e--------------------------------------------|

Softball playing lesbians are voting for Al Gore
The Virgin Mary's been replaced by Zsa Zsa Gabor
Rod’s Charburger tweakers collect knick-knacks for the thrift store
Rubbers, plastic six-pack ring things and syringes wash up on the shore

Chorus

Let’s Get F**ked Up
Let’s Get F**ked Up
Let’s Get F**ked Up

Verse 2

Everyone we know is down with Hepatitis C
Some of them have thyroid problems and some have HIV
Interferon injection is the future for you and me
San Onofre and the microwave spew radioactivity

Solo (sorry, I don’t know it)

Verse

I’ve stayed clean for more than a decade. I haven’t even had a beer
I’m knocking back a Martinelli’s when I’m ringing in the new year
The reason that I live this way is getting a bit less clear
You’ve been living like an angel even the Jesus freaks think you’re queer

Chorus

Let’s Get F**ked Up
Let’s Get F**ked Up
Let’s Get F**ked Up
Tap to rate this tab
# A B C D E F G H I J K L M N O P Q R S T U V W X Y Z