Guitaretab - guitar tabs
Song name
# A B C D E F G H I J K L M N O P Q R S T U V W X Y Z

Snail - Full-acid tab

-----------------------------------------------------------------------------
			     SNAIL  Full-Acid
-----------------------------------------------------------------------------
Tabbed by: Cab "Snoop" H.

Standard Tuning
Listen to song for timing

VERSE RIFF (Repeat million x)
[ Tab from: http://www.guitaretab.com/s/snail/108305.html ]
e|--------------------------------------------------------------------------|
B|--------------------------------------------------------------------------|
G|-----------------------0----------------------2b3r2p0---------------------|
D|-2-----0h2---0h2---2-2------2-----0h2---0h2-----------2-------------------|
A|-2--------------------------2---------------------------------------------|
E|-0-0-0-----0-----0----------0-0-0-----0-----0-----------0-----------------|

CHORUS RIFF

e|--------------------------------------------------------------------------|
B|--------------------------------------------------------------------------|
G|--------------------------------------------------------------------------|
D|-7-7-7-7-7-7-7-7-8-8-8-8-5-5-5-5--2--2-2-2-8-7-3--2--2-2-2-8-7-5----------|
A|-7-7-7-7-7-7-7-7-8-8-8-8-5-5-5-5--2--2-2-2-8-7-5--2--2-2-2-8-7-5----------|
E|-5-5-5-5-5-5-5-5-6-6-6-6-3-3-3-3--0--0-0-0-6-5-3-0--0-0-0-6-5-3----------|

Random squealing lead work in Em pentatonic works well

Snail rules!  And they're recording new material in 2008!

http://www.myspace.com/snailexhumed