Song name
# A B C D E F G H I J K L M N O P Q R S T U V W X Y Z

Snapcase - Coagulate tab

Intro:
E|---------------------------------------------------------|
B|---7-----7-----7-----7-----------------------------------|
G|---6-----6-----6-----6---6-6-----------------------------|
D|-3-4-3-3-4-3-3-4-3-3-4-3-6-6-6-6-------------------------|
A|-3---3-3---3-3---3-3---3-4-4-6-6-------------------------|
D|-3---3-3---3-3---3-3---3-----6-6-------------------------|
    4 Times

---

Verse
E|---------------------------------------------------------|
B|---7-----7-----7-----7-----------------------------------|
G|---6-----6-----6-----6---6-6-----------------------------|
D|-3-4-3-3-4-3-3-4-3-3-4-3-6-6-6-6-------------------------|
A|-3---3-3---3-3---3-3---3-4-4-6-6-------------------------|
D|-3---3-3---3-3---3-3---3-----6-6-------------------------|

E|---------------------------------------------------------|
B|---7-----7-----7-----7-----------------------------------|
G|---6-----6-----6-----6---666-----------------------------|
D|-3-4-3-3-4-3-3-4-3-3-4-3-666-666-------------------------|
A|-3---3-3---3-3---3-3---3-444-666-------------------------|
D|-3---3-3---3-3---3-3---3-----666-------------------------|

E|---------------------------------------------------------|
B|---7-----7-----7-----7-----------------------------------|
G|---6-----6-----6-----6---6-6-----------------------------|
D|-3-4-3-3-4-3-3-4-3-3-4-3-6-6-6-6-------------------------|
A|-3---3-3---3-3---3-3---3-4-4-6-6-------------------------|
D|-3---3-3---3-3---3-3---3-----6-6-------------------------|
	2 Times
---

Chorus:
E|---------------------------------------------------------|
B|-----------7-------7-------------------------------------|
G|-----------6-------6-------------------------------------|
D|-3-3--3-3--4--3-3--4-------------------------------------|
A|-3-3--3-3-----3-3----------------------------------------|
D|-3-3--3-3-----3-3----------------------------------------|
	3 Times

E|---------------------------------------------------------|
B|-----------7---------------------------------------------|
G|-----------6-------6-6-----------------------------------|
D|-3-3--3-3--4--3-3--6-6-6-6-1-4------4-4-6-6-1-3----------|
A|-3-3--3-3-----3-3--4-4-6-6-1-4------4-4-6-6-1-3----------|
D|-3-3--3-3-----3-3------6-6-1-4------4-4-6-6-1-3----------|

---

Bridge
E|---------------------------------------------------------|
B|---------------------------------------------------------|
G|---------------------------------------------------------|
D|---------------------------------1-----------------------|
A|---------------------------------1-----------------------|
D|-3-6--1-3-6--1-3-6--1-3-6--1-3-6-1-----------------------|
	3 Times

E|---------------------------------------------------------|
B|---------------------------------------------------------|
G|---------------------------------------------------------|
D|--------------------------4--6--1--4-----4-4-6-6-1-4-----|
A|--------------------------4--6--1--4-----4-4-6-6-1-4-----|
D|-3-6--1-3-6--1-3-6--1-3-6-4--6--1--4-----4-4-6-6-1-4-----|

E|---------------------------------------------------------|
B|---------------------------------------------------------|
G|---------------------------------------------------------|
D|-4-4-6-1-1-----------------------------------------------|
A|-4-4-6-1-1-----------------------------------------------|
D|-4-4-6-1-1-----------------------------------------------|

E|----------------------------------------------------------|
B|----------------------------------------------------------|
G|----------------------------------------------------------|
D|-3-6--1-3-6--1-3-6--1-3-6--1-3-6-1------------------------|
A|-3-6--1-3-6--1-3-6--1-3-6--1-3-6-1------------------------|
D|-3-6--1-3-6--1-3-6--1-3-6--1-3-6-1------------------------|
	4 Times
Tap to rate this tab
 
# A B C D E F G H I J K L M N O P Q R S T U V W X Y Z