Song name
# A B C D E F G H I J K L M N O P Q R S T U V W X Y Z

Snapcase - Idhindsight tab

This is my first tab and I'm not quite sure of it... So if you find an error please

tell me...

INTRO & Soft part of the song

Riff 1
e|--------------------------------------------------|
B|--9--9--7--7--6--6--4--4--2--2--0--0--2--2--4--4--|
G|--------------------------------------------------| X2
D|--------------------------------------------------|
A|--------------------------------------------------|
E|--------------------------------------------------|


Riff 2
e|--------------------------------------------------|
B|--5--5--5--5--4--4--7--7--5--5--5--5--4--4--7--7--|
G|--------------------------------------------------| X2
D|--------------------------------------------------|
A|--------------------------------------------------|
E|--------------------------------------------------|


The next part is played with power chords...

Riff 3

e|--------------------------|
B|--------------------------|
G|--13-11--9--8--6--4--6--8-|
D|--13-11--9--8--6--4--6--8-| X2    Listen to the song to get the right rythm
A|--11--9--7--6--4--2--4--6-|
E|--------------------------|

Riff 4
e|---------------------------|
B|---------------------------|
G|--9--9--9--9--7--7--10-10--| X4
D|--9--9--9--9--7--7--10-10--|
A|--7--7--7--7--5--5---8--8--|
E|---------------------------|

Riff 5
e|---
B|---
G|--- X17
D|--6
A|--6
E|--4


STRUCTURE

Riff 1
Riff 2
Riff 1
Riff 2
Riff 3
Riff 4
Riff 3
Riff 4
Riff 5
Tap to rate this tab
# A B C D E F G H I J K L M N O P Q R S T U V W X Y Z