Song name
# A B C D E F G H I J K L M N O P Q R S T U V W X Y Z

Snatam Kaur - Mul Mantra chords

Highlighted       Show chord diagrams
Mul Mantra - Snatam Kaur 

F# sounds a bit off.

Chords
Am 002210
Em 022000
G# 355433
F# 131211
C  032010

Intro 0:12 - 0:20 
(Am Em G# F# Am)
e|-----------------------------------------------|
B|------10--12-12-----10-------------------------|
G|---9------------12-----12-12s11-11-------------|
D|----------------------------------12--10-------|
A|-----------------------------------------------|
E|-----------------------------------------------|

0:22  1:27

Am     Em  G#	   F#               Am
Ek Ong Kar Sat Nam Kartaa Purkh Nirbhao Nirvair

Am     Em    G#      F#           Am
Akaal Moorat Ajoonee Saibhang Gur Prasaad Jap

Am       Em          G#            F#          Am
Aad Sach Jugaad Sach Hai Bhee Sach Nanak Hosee Bhee Sach 

Am     Em  G#	   F#               Am
Ek Ong Kar Sat Nam Kartaa Purkh Nirbhao Nirvair

Am     Em    G#      F#           Am
Akaal Moorat Ajoonee Saibhang Gur Prasaad Jap

Am       Em          G#            F#          Am
Aad Sach Jugaad Sach Hai Bhee Sach Nanak Hosee Bhee Sach 

1:29  2:29

F#             Am      	  Em	   C      Am
Ek Ong Kar Sat Nam Kartaa Purkh Nirbhao Nirvair
F#           Am      Em	          C       Am
Akaal Moorat Ajoonee Saibhang Gur Prasaad Jap 
F#       Am          Em	           C     Am    F#   Am   Em          C      
Aad Sach Jugaad Sach Hai Bhee Sach Nanak Hosee Bhee Sach Nanak Hosee Bhee 
Am 
Sach

F#             Am      	  Em	   C      Am
Ek Ong Kar Sat Nam Kartaa Purkh Nirbhao Nirvair
F#           Am      Em	          C       Am
Akaal Moorat Ajoonee Saibhang Gur Prasaad Jap 
F#       Am          Em	           C     Am    F#   Am   Em          C      
Aad Sach Jugaad Sach Hai Bhee Sach Nanak Hosee Bhee Sach Nanak Hosee Bhee 
Am 
Sach

e|-----------------------------------------------|
B|------10--12-12-----10-------------------------|
G|---9------------12-----12-12s11-11-------------|
D|----------------------------------12--10-------|
A|-----------------------------------------------|
E|-----------------------------------------------|


e|-----------------------------------------------|
B|--10-12-13-12-10-13s15-15-13-12----------------|
G|-----------------------------------------------|
D|-----------------------------------------------|
A|-----------------------------------------------|
E|-----------------------------------------------|

e|-----------------------------------------------|
B|--12-12-13-15-15-15-13-17-15-13-15-13-10-10----|
G|-----------------------------------------------|
D|-----------------------------------------------|
A|-----------------------------------------------|
E|-----------------------------------------------|

Something like that!

http://www.snatamkaur.com/
Tap to rate this tab
 
# A B C D E F G H I J K L M N O P Q R S T U V W X Y Z