Song name
# A B C D E F G H I J K L M N O P Q R S T U V W X Y Z

Sneak Attack Tigers - This And Nothing Else tab

_ _ _ _ _ _ _ _ _ _ _ _ _ _ _ _ _ _ _ _ _ _ _ _ _ _ _ _ _ _ _ _ _ _ _ _ _ _

                           This And Nothing Else
                                     _
                                 
                            Sneak Attack Tigers

_ _ _ _ _ _ _ _ _ _ _ _ _ _ _ _ _ _ _ _ _ _ _ _ _ _ _ _ _ _ _ _ _ _ _ _ _ _

The sneak attack tigers are a band which arent quite yet famous yet...but they
wil be. The first song i heard by them was 'The End Of All Good,'  and this is
superb. I heard it on FIFA 05 and since then went to their site and downloaded
'Signs Of Life' and 'This and Nothing Else.' Hopefully their melodic songs will
be enjoyed by everyone as much as i did.

www.sneakattacktigers.com

E
B
G
D
A
E

________________

_INTRO/VERSE_x4
________________

+Intro=x2  (00:05-00:26)

+Verse=x2  (00:27-00:49)
________________


Guitar 1                                                Guitar 2
E|-----------|-----------|-------------|-------0-0---|  |------------------|
B|-4-5-4-4p2-|-----------|-------------|-----------0-|  |-17-17-17---------|
G|-----------|-----4-4p2-|---1-2-4-4-2-|-----2-------|  |------------------|
D|-----------|-1-2-------|-2-----------|-2-4---------|  |this part is------|
A|-----------|-----------|-------------|-------------|  |played just before|
E|-----------|-----------|-------------|-------------|  |the chorus--------|


_______________

_CHORUS_ (00:50-01:03)

_______________

Guitar 1
E|-----------|-----------|-----------|-----------|
B|-----------|-----------|-----------|-----------|
G|-----------|-----------|-----------|-----------|
D|-----------|-----------|-----------|-----------|
A|-4444-6666-|-7777-9999-|-4444-6666-|-5----5----|
E|-2222-4444-|-5555-7777-|-2222-4444-|-7----7----|

Guitar 2
E|---------------------|-------------------------|
B|-10-10-10-10-9-9-9-9-|-10-10-10-10-12-12-12-12-|
G|-11-11-11-11-9-9-9-9-|--9--9--9--9-11-11-11-11-|
D|---------------------|-------------------------|
A|---------------------|-------------------------|
E|---------------------|-------------------------|

E|---------------------|-------------------------|
B|-10-10-10-10-9-9-9-9-|-10---------10-----------|
G|-11-11-11-11-9-9-9-9-|--9----------9-----------|
D|---------------------|-------------------------|
A|---------------------|-------------------------|
E|---------------------|-------------------------|


________________

_VERSE_x2 (01:14-01:25)
________________

Guitar 1                                                Guitar 2
E|-----------|-----------|-------------|-------0-0---|  |------------------|
B|-4-5-4-4p2-|-----------|-------------|-----------0-|  |-17-17-17---------|
G|-----------|-----4-4p2-|---1-2-4-4-2-|-----2-------|  |------------------|
D|-----------|-1-2-------|-2-----------|-2-4---------|  |this part is------|
A|-----------|-----------|-------------|-------------|  |played just before|
E|-----------|-----------|-------------|-------------|  |the chorus--------|


_______________

_CHORUS_   (01:26-01:50)

_______________

Guitar 1
E|-----------|-----------|-----------|-----------|
B|-----------|-----------|-----------|-----------|
G|-----------|-----------|-----------|-----------|
D|-----------|-----------|-----------|-----------|
A|-4444-6666-|-7777-9999-|-4444-6666-|-5555-6666-|
E|-2222-4444-|-5555-7777-|-2222-4444-|-7777-4444-|

E|-----------|-----------|-----------|-----------|
B|-----------|-----------|-----------|-----------|
G|-----------|-----------|-----------|-----------|
D|-----------|-----------|-----------|-----------|
A|-4444-6666-|-7777-9999-|-4444-6666-|-7----7----|
E|-2222-4444-|-5555-7777-|-2222-4444-|-5----5----|


Guitar 2
E|---------------------|-------------------------|
B|-10-10-10-10-9-9-9-9-|-10-10-10-10-12-12-12-12-|
G|-11-11-11-11-9-9-9-9-|--9--9--9--9-11-11-11-11-|
D|---------------------|-------------------------|
A|---------------------|-------------------------|
E|---------------------|-------------------------|

E|---------------------|-------------------------|
B|-10-10-10-10-9-9-9-9-|-10-10-10-10--9-9-9-9----|
G|-11-11-11-11-9-9-9-9-|--9--9--9--9--9-9-9-9----|
D|---------------------|-------------------------|
A|---------------------|-------------------------|
E|---------------------|-------------------------|

E|---------------------|-------------------------|
B|-10-10-10-10-9-9-9-9-|-10-10-10-10-12-12-12-12-|
G|-11-11-11-11-9-9-9-9-|--9--9--9--9-11-11-11-11-|
D|---------------------|-------------------------|
A|---------------------|-------------------------|
E|---------------------|-------------------------|

E|---------------------|-------------------------|
B|-10-10-10-10-9-9-9-9-|-10----------10----------|
G|-11-11-11-11-9-9-9-9-|--9-----------9----------|
D|---------------------|-------------------------|
A|---------------------|-------------------------|
E|---------------------|-------------------------|

____________

_BRIDGE_  (01:51-02:34)

 [PART 1]
____________

Guitar 1
E|-------------------------------------------|\
B|-------------------------------------------| |
G|-88888888-99-88-66-444-66666-444-66666-444-| |
D|-------------------------------------------| |=x2
A|-------------------------------------------| |
E|-------------------------------------------|/

E|----------------------------------------------|\
B|----------------------------------------------| |
G|-88888888-99-88-66-44-99-88-66-44-99-88-66-44-| |
D|-XXXXXXXX-XX-XX-XX-XX-XX-XX-XX-XX_XX-XX_XX-XX-| |=x2
A|-66666666-77-66-44-22-77-66-44-22-77-66-44-22-| |
E|----------------------------------------------|/

Guitar 2  (PICK SCRAPE)
E|-----------------------|----------------------|
B|-----------------------|----------------------|
G|-------- At the end of-|----------------------|
D|-------Guitar 1's Part-|-XXXXXXXXXXXXXXXXXXXX-|
A|-----------------------|-XXXXXXXXXXXXXXXXXXXX-|
E|-----------------------|-XXXXXXXXXXXXXXXXXXXX-|
____________

_BRIDGE_  (02:35-3:19)

 [PART 2]
____________

Guitar 1
E|----------------------------------------------|\
B|----------------------------------------------| |
G|-88888888-99-88-66-44-99-88-66-44-99-88-66-44-| |
D|-XXXXXXXX-XX-XX-XX-XX-XX-XX-XX-XX_XX-XX_XX-XX-| |=x3
A|-66666666-77-66-44-22-77-66-44-22-77-66-44-22-| |
E|----------------------------------------------|/

Guitar 2
E|-------------------------|-------------------------|--------|\
B|-------------------------|-------------------------|--------| |
G|-11-11-11-11-11-11-11-11-|-13-13-13-13-13-13-13-13-|-9h11p9-| |
D|-------------------------|-------------------------|--------| |=Every odd
A|-------------------------|-------------------------|--------| |   time
E|-------------------------|-------------------------|--------|/  (1,3,etc)


E|---------------|\
B|-10-9-10-------| |
G|---------9-8-9-| |
D|---------------| |=Every other
A|---------------| |    time
E|---------------|/

Fade to end.....



TTENNEB
Tap to rate this tab
# A B C D E F G H I J K L M N O P Q R S T U V W X Y Z