Song name
# A B C D E F G H I J K L M N O P Q R S T U V W X Y Z

Sneaker Pimps - Black Sheep tab

black sheep
Sneaker Pimps

-By Chuck Dizzle

Here is the intro to the song, beware that there is alot of dynamic range with these 
(some are played very quietly) so dont play all the same dynamic.
-----------------------------------------------------------------------------|
-----------------------------------------------------------------------------|
-----------------------------------------------------------------------------|
-----5---5------5----3--5----5--------------3--5---5--------------3--5---5---|
-------------------3-------5---5/6\5/6\5---------5----5/6\5/6\5--------5-----|
--3----5---5-6----------------------------6---------------------6------------|

Switches with this riff when the song is building towards the chorus. RIght before the 
the first riff is played again.

--------------------------------------------------------------|
--------------------------------------------------------------|
--------------------------------------------------------------|
-----5---5------5----3--5--------5----5-----5----3--5---------|
-------------------3-------5-------------------3-------5------|
--3----5---5-6----------------3----5----5-6-------------------|

Chorus

--x---x---x---x-----|
--3---3---3---3-----|
--0---0---0---0-----|
--0---x---0---3-----|
--x---1---3---x-----|
--3---x---x---x-----|


yeaaaa boi just keep on doin that stuff.
Tap to rate this tab
# A B C D E F G H I J K L M N O P Q R S T U V W X Y Z