Song name
# A B C D E F G H I J K L M N O P Q R S T U V W X Y Z

Sneaker Pimps - Empathy Low tab

-------------------------------------------------------------------------------
Empathy Low- Sneaker Pimps
-------------------------------------------------------------------------------

Tuning: Standard EADGBe, Capo at 2nd.
Bold notes sound best when played loudly, and left to ring.


Intro, and verse variation 1

e|----------------------------------------|---------------------------------------|
B|------------6---6---6-------6---6----6--|------4--------4-------4--------4------|
G|---3----------5---5-----------5---5-----|--------5-6-5-------------5-6-5--------|
D|-------3-----------------3--------------|--3-----------------3------------------|
A|----------------------------------------|---------------------------------------|
E|----------------------------------------|---------------------------------------|

e|----------------------------------------|---------------------------------------|
B|------6----6----6-------6---6---6-------|------6---6---6-------6---6---6--------|
G|---------3----3-----------3---3---------|--------3---3-----------3---3----------|
D|---4------------------------------------|---4-----------------------------------|
A|----------------------------------------|--------------------4------------------|
E|---------------------2------------------|---------------------------------------|


Her innocence above me
Today is dead she's around my head
between my history between my headphones
this is her home forever her home

Verse variation 2

e|--------------------------------|-----------------------------------------------|
B|--------------------------------|---------4-----4-------------------------------|
G|-----5---5---5------5---5---5---|-----5-----------------5---5---5---------------|
D|-------5---5----------5---5-----|-------5----5------------5---5-----------------|
A|---3--------------3-------------|---3----------------3--------------------------|
E|--------------------------------|-----------------------------------------------|

(Then C# adding G)

e|--------------------------------|-----------------------------------------------|
B|--------------------------------|-----4---4---4---------------------------------|
G|-----6---6---6-----6---6---6----|--------------------6---6---6------------------|
D|-------6---6---------6---6------|-------6---6----------6---6--------------------|
A|---4-------------4--------------|---4--------------4----------------------------|
E|--------------------------------|-----------------------------------------------|


But I can't be her brother
to empower her to become her
Trawl through this forgiveness
my memory's so empathy low

Bridge
(Don’t worry if it doesn’t sound right the first time you play it – the timings of the 
are quite awkward, and will improve with practice.)

e|-----------|----------|-----2------|-----|------------|-----|--------------------|
B|-----------|--2-------|---2--------|-----|-------2----|-----|-------2------------|
G|-----------|----5-----|-------5----|-----|-----8------|-----|-----3--------------|
D|--------6--|-------6--|----------6-|-----|---9--------|-----|---------4----------|
A|------6----|----------|------------|-----|---------9--|-----|---2----------------|
E|---4-------|----------|------------|--7--|------------|--2--|--------------------|

e|----|----------|--2-------------|-----|-----------|------------------------------|
B|----|---2------|----2----2------|-----|------2----|---------2--------------------|
G|----|-----5----|------5----5----|-----|----8------|-------3----------------------|
D|----|-------6--|-------------6--|-----|--9--------|-----------4------------------|
A|----|-6--------|----------------|-----|--------9--|-----4------------------------|
E|--4-|----------|----------------|--7--|-----------|---2--------------------------|


Rest of the song:

Verse variation 1

This attitude beneath her
It's evident it denies us
Proves herself to be closer
But not me forever not me

Verse variation 2

This sickness avoids all cure
Imperfection my downfall
Learn myself through symptoms
My memory's so
Empathy low

Bridge.
Tap to rate this tab
# A B C D E F G H I J K L M N O P Q R S T U V W X Y Z