Song name
# A B C D E F G H I J K L M N O P Q R S T U V W X Y Z

Sneaker Pimps - Low Place Like Home tab

Help us improve GuitareTab! Take a short survey!
-------------------------------------------------------------------------------
			    Low Place Like Home - Sneaker Pimps
-------------------------------------------------------------------------------
Tabbed by:Vtrillo627
Email:it_dies_today84@yahoo.com

Tuning:Standard


Not much to this song, most of it was keyboard....So here are
the guitar riffs that are used.


Intro & Verses

e|--------------|
B|-----1----1---|
G|----3----3----| 
D|---1----------| 
A|-------3------|
E|--------------|



Chorus:

     G#    C5 
e|---x-----x-----|
B|---x-----x-----|
G|---5-----5-----| 
D|---6-----5-----| w/distortion
A|---6-----3-----|
E|---4-----x-----|



| /  slide up
| \  slide down
| h  hammer-on
| p  pull-off
| ~  vibrato
| +  harmonic
| x  Mute note
===============================================================================
Related for Low Place Like Home tab