Sneaker Pimps - How Do tab

SONG: How Do
ARTIST: Sneaker Pimps
ALBUM: Becoming X

Standard Tuning

INTRO ("Sargent...")

E|---------------------1-----1-3-----1-----1----------------|
B|-1-----3-----3-4---------------------------4-----3--------|
G|---0-----0-------0-----0-------0-----0-------0-----0---0--| x 3
D|----------------------------------------------------------|
A|-3---3-3---3---3---3-3---3---3---3-3---3---3---3-3---3----|
E|----------------------------------------------------------|

VERSE 1

  Bb                         Fm
E|------------------------------------------------------------------|
B|-----3-1-3--------3-1---------------------------------------------|
G|-----------3------------3------1-0-3-1------1-0-3-1------1-0-3-1--|
D|---3------------3------------3------------3------------3----------|
A|-1------------1---------------------------------------------------|
E|---------------------------1------------1------------1------------|
                 Bb
E|-----------------------------------------|
B|-------------------3-1-3--------3-1------|
G|------1-0-3-1------------3------------3--| x2
D|----3------------3------------3----------|
A|---------------1------------1------------|
E|--1--------------------------------------|

   Fm
E|--------------------------------------------------------------1-----|
B|----------------------------1-----3-----3-4-----3-----3-4-----------|
G|------1-0-3-1------1-0-3-1----0-----0-------0-----0-------0-----0---|
D|----3------------3--------------------------------------------------|
A|----------------------------3---3-3---3---3---3-3---3---3---3-3---3-|
E|--1------------1----------------------------------------------------|

E|-1---------------|
B|---4-----3-------|
G|-----0-----0---0-| x1
D|-----------------|
A|---3---3-3---3---|
E|-----------------|

VERSE 2

  Bb                         Fm
E|------------------------------------------------------------------|
B|-----3-1-3--------3-1---------------------------------------------|
G|-----------3------------3------1-0-3-1------1-0-3-1------1-0-3-1--|
D|---3------------3------------3------------3------------3----------|
A|-1------------1---------------------------------------------------|
E|---------------------------1------------1------------1------------|

                 Bb
E|-----------------------------------------|
B|-------------------3-1-3--------3-1------|
G|------1-0-3-1------------3------------3--| x2
D|----3------------3------------3----------|
A|---------------1------------1------------|
E|--1--------------------------------------|

    Fm
E|------------------------------------------------------|
B|----------------------------1-----3-----3-4-----3-----|
G|------1-0-3-1------1-0-3-1----0-----0-------0-----0---|
D|----3------------3------------------------------------|
A|----------------------------3---3-3---3---3---3-3---3-|
E|--1------------1--------------------------------------|

E|-------------------------------------------------------------1------|
B|-----------------------------------------1-----3-----3-4------------|
G|-------------------------------------------0-----0-------0-----0----|
D|--------------------------------------------------------------------|
A|-----------------------------------------3---3-3---3---3---3-3---3--|
E|--3------------3~------------3~-------------------------------------|

E|-1-3-----1-----1----------------|
B|-----------------4-----3--------|
G|-----0-----0-------0-----0---0--| x1
D|--------------------------------|
A|---3---3-3---3---3---3-3---3----|
E|--------------------------------|

Remainder of the song is a mix of the above verses or portions of them.

Tabbed by Falldrive
Tap to rate this tab
 
# A B C D E F G H I J K L M N O P Q R S T U V W X Y Z