Song name
# A B C D E F G H I J K L M N O P Q R S T U V W X Y Z

Sneaker Pimps - Sick tab

Sneaker Pimps
Sick

Standard Tuning

Intro \ Verse

e----------------------------------|
B----------------------------------|
G--12\---9----9--------------------|
D-- X\---x----x---10--12---5--5----|
A--10\---7----7---10--12---5--5----|
E--X\--------------9---10--3--3----|

Pre Chorus
e--------------------------------------|
B--------------------------------------|
G--9-9--xx-----------9\11-11-----------|
D--x-x--xx--9-9-xx---x\x--x--xx-11-11--|
A--7-7--xx--x-x-xx---7\9--9--xx-x--x---|
E-----------7-7-xx-----------xx-9--9---|

Pre Chorus cont.
e------------------------------------|
B------------------------------------|
G--9-9--xx-----------11-11-----------|
D--x-x--xx--9-9-xx---x--x--xx-11-11--|
A--7-7--xx--x-x-xx---9--9--xx-x--x---|
E-----------7-7-xx---------xx-9--9---|

Chorus

e-----------------------------------|
B-----------------------------------|
G--5-5-----------5-5-/-7-7----------|
D--5-5---5-5-----5-5-/-7-7---7-7----|
A--3-3---5-5-----3-3-/-5-5---7-7----|
E--------3-3-----------------5-5----|


Get a feel for the strumming as there are plenty of dead notes I have not indicated 
here. But essentially that is the whole song.
Tap to rate this tab
 
# A B C D E F G H I J K L M N O P Q R S T U V W X Y Z