Song name
# A B C D E F G H I J K L M N O P Q R S T U V W X Y Z

Snfu - Better Homes And Gardens tab

Oh hai! this is my fave punk song and i thought id tab it! enjoy this fine song. Plz 
youtube.com/user/5CR3Wyou Thanks :D :)

btw i dont rlly know what tuning was used... but i just use standard :)

intro:also_chorus...
e-|--------------------------------------------------------------------|
B-|--------------------------------------------------------------------|
G-|--------------------------------------------------------------------|
D-|-5-4---------5-4---------5-4-7-4-4-4-5-4----5-4---------5-4---------|
A-|-3-2-2-2-2-2-3-2-2-2-2-2-3-2-5-2-2-2-3-2-2--3-2-2-2-2-2-3-2-2-2-2-2-|
E-|-----0-0-0-0-----0-0-0-0-----------------0------0-0-0-0-----0-0-0-0-|

e-|---------------------------------------------------------|
B-|---------------------------------------------------------|
G-|---------------------------------------------------------|
D-|-5-4-7-4-4-4-5-4----5-4---------5-4---------5-4-2-7-5-4--|
A-|-3-2-5-2-2-2-3-2-2--3-2-2-2-2-2-3-2-2-2-2-2-3-2-0-5-3-2--|
E-|-----------------0------0-0-0-0-----0-0-0-0--------------|

pre-verse:
e-|----------------------------------------------------------------|
B-|----------------------------------------------------------------|
G-|----------------------------------------------------------------|
D-|-7-7-7-7-7-5-5-10-10-10-10-10-5-5-7-7-5-5-10-10-5-5-5-5-5-5-5-5-|
A-|-5-5-5-5-5-3-3--8--8--8--8--8-3-3-5-5-3-3--8--8-3-3-3-3-3-3-3-3-|
E-|----------------------------------------------------------------|

verse:
e-|----------------------------------------------------------------|
B-|----------------------------------------------------------------|
G-|----------------------------------------------------------------|
D-|-7-7-7-7-7-5-5-10-10-10-10-10-5-5-7-7-5-5-10-10-9-9-9-9-9-9-9-9-|
A-|-5-5-5-5-5-3-3--8--8--8--8--8-3-3-5-5-3-3--8--8-7-7-7-7-7-7-7-7-|
E-|----------------------------------------------------------------|

e-|-------------------------------------------------------------|
B-|-------------------------------------------------------------|
G-|-------------------------------------------------------------|
D-|-7-7-7-7-7-7-5-5-7-7-7-7-7-7-5-5-7-7-7-7-7-7-5-5-7-7-7-7-7-7-|
A-|-5-5-5-5-5-5-3-3-5-5-5-5-5-5-3-3-5-5-5-5-5-5-3-3-5-5-5-5-5-5-|
E-|-------------------------------------------------------------|

e-|-------------------------------------------------------------|
B-|-------------------------------------------------------------|
G-|-------------------------------------------------------------|
D-|-7-7-7-7-7-7-5-5-7-7-7-7-7-7-5-5-7-7-7-7-7-7-5-5-7-7-7-7-7-7-|
A-|-5-5-5-5-5-5-3-3-5-5-5-5-5-5-3-3-5-5-5-5-5-5-3-3-5-5-5-5-5-5-|
E-|-------------------------------------------------------------|

e-|-------------------------------------------------------------------------|
B-|-------------------------------------------------------------------------|
G-|-------------------------------------------------------------------------|
D-|---9---------------9---------------9---------------9-------------9-9-9-9-|
A-|-7---7-5-3-3-3-3-7---7-5-3-3-3-3-7---7-5-3-3-3-3-7---7-5-3-3-3-3-7-7-7-7-|
E-|-------------------------------------------------------------------------|
Tap to rate this tab
# A B C D E F G H I J K L M N O P Q R S T U V W X Y Z