Song name
# A B C D E F G H I J K L M N O P Q R S T U V W X Y Z

Snfu - Fate tab

          song- Fate
          band- snfu

 tuning standard
 heres a cool song by snfu my mates and i cover sometimes, hope the tabs help

 intro
 e----------------------------------------|
 b----------------------------------------|
 g--------3-------3-------3---------------|
 d------4-------4-------4----7777-9999----|
 a----4-------4-------4------7777-9999----|
 e--2-------2-------2--------5555-7777----|

 verse
 e----------------------------------------|
 b----------------------------------------|
 g--------------times 3 then--------------|
 d--44444-77-7-----------------7777-9999--|
 a--44444-55-0-----------------7777-9999--|
 e--22222----------------------5555-7777--|

 chorus
 e------------------------|
 b------------------------|
 g------------------------|
 d--55555555--7777--7777--|
 a--55555555--5555--7777--|
 e--33333333--5555--5555--|

 thats about it i think. also heres the cool bass riff (i think)

 bass riff
 g---------------------------------|---------------|
 d----12-------------12-12-0-------|---------------|
 a--9----12-12-0-999---------12-0--|---------------|
 e---------------------------------|-5555--7777----|

 cheers glennr.82@hotmail.com
Tap to rate this tab
 
# A B C D E F G H I J K L M N O P Q R S T U V W X Y Z