Song name
# A B C D E F G H I J K L M N O P Q R S T U V W X Y Z

Snfu - Drunk On A Bike tab

Drunk on a Bike - S.N.F.U.

Intro (With distortion and a phaser effect)

e|---------------------------------------------|
B|--7--7-7-7-7---7--7-7-7-7-------5-------5----|
G|--4--4-4-4-4---6--6-6-6-6-----4---4---4---4--|
D|--4--4-4-4-4---4--4-4-4-4---2-------2--------|
A|---------------------------------------------|
E|---------------------------------------------|

e|----------------------------|
B|--7--7-7-7-7---7--7--9--10--|
G|--4--4-4-4-4---6--6--6--9---|
D|--4--4-4-4-4---4--4--6--7---|
A|----------------------------|
E|----------------------------|


Verse x6

e|-----------------------------------------------------------------|
B|-----------------------------------------------------------------|
G|--4-4-4-4-4-4-4-4------------------------------------------------|
D|--4-4-4-4-4-4-4-4--4-4-4-4-4-4-4-4--7-7-7-7-7-7-7-7--------------|
A|--2-2-2-2-2-2-2-2--4-4-4-4-4-4-4-4--7-7-7-7-7-7-7-7--------------|
E|-------------------2-2-2-2-2-2-2-2--5-5-5-5-5-5-5-5-4h5p4-0---0--|

Pre-Chorus

e|------------------------------------------------------------------------|
B|------------------------------------------------------------------------|
G|--4-4-4-4-4-4-4-4-------------------------------------------------------|
D|--4-4-4-4-4-4-4-4--4-4-4-4-4-4-4-4--7--7--7--7--7--7--7--7--------------|
A|--2-2-2-2-2-2-2-2--4-4-4-4-4-4-4-4--7--7--7--7--7--7--7--7--------------|
E|-------------------2-2-2-2-2-2-2-2--5--5--5--5--5--5--5--5--4--5-4-0----|

Chorus

e|---------------------------------------------------------------------|
B|---------------------------------------------------------------------|
G|--6-6-6-6-6-6-6-6-------------------4-4-4-4-4-4-4-4-4-4-4-4-4-4-4-4--|
D|--6-6-6-6-6-6-6-6--7-7-7-7-7-7-7-7--4-4-4-4-4-4-4-4-4-4-4-4-4-4-4-4--|
A|--4-4-4-4-4-4-4-4--7-7-7-7-7-7-7-7--2-2-2-2-2-2-2-2-2-2-2-2-2-2-2-2--|
E|-------------------5-5-5-5-5-5-5-5-----------------------------------|

*After each chorus, sit on the B5 for a few bars then go back into the verse*

Middle 8 (After second chorus)

e|-------------------------------------------------------------------------|
B|-----_____--------------------____------_____--------------------____----|
G|--4-|     |------2-------2---|    |--4-|     |------2-------2---|    |---|
D|--4-| x32 |----2---2---2---2-| x2 |--4-| x16 |----2---2---2---2-| x2 |---|
A|--2-|_____|--0-------0-------|____|--2-|_____|--0-------0-------|____|---|
E|-------------------------------------------------------------------------|



e|--------|
B|--------|
G|--2--4--|
D|--2--4--|
A|--0--2--|
E|--------|


Back into the third chorus 

Outro 

e|------------------------||
B|------------------------||
G|--9--8--7--6--5--4--3---||
D|--9--8--7--6--5--4--3---||
A|--7--6--5--4--3--2--1---||
E|------------------------||


Listen to the song and you will figure it out

Cheers!
Tap to rate this tab
# A B C D E F G H I J K L M N O P Q R S T U V W X Y Z