Song name
# A B C D E F G H I J K L M N O P Q R S T U V W X Y Z

Snider Todd - Enough tab

tab: Enough
artist:Disturbed

intro:
-18-17----|
-------18-|
----------|
----------|
----------|
intro fig2
gtr 1:
---------------------------------------|
---------------------------------------|
---------------------------------------|
---------------------------------------|(x3)
--3-4-3--------------------------------|
-0------0-3-1-0-1--0-0-4-0-0-3-1-3-1-0-|
gtr 2:
---------------------------------------|
---------------------------------------|
---------------------------------------|
---------------------12/---------------|(x3)
---------------------------------------|
---------------------12/---------------|

then
---------------------------------------|
---------------------------------------|
---------------------------------------|
---------------------------------------|
--3-4-3------------0-3-3-3-3-3-3-3-3-3-|
-0------0-3-1-0-1----------------------|

verse:
-----------------------------------------|
-----------------------------------------|
-----------------------------------------|
---3-4-3---------------------------------|(x4)
-0-3-4-3-0-3-1-0-1-----------------------|
-0-------0-3-1-0-1-0-0-4-0-0-3-0-0-1-0-1-|

-----------------------------------------|
-----------------------------------------|
-----------------------------------------|
-----------------------------------------|
-0-3-3-4--4-3-4--4-3-4--4-3-4------------|

chorus:(even nothing left inside...)
------1-4-3--|
-3-3-1-----4-|
-------------|
-------------|
-------------|
-------------|

then:(when your...)
-----3-2-------3-2-------3-2-------------|
-3-3----3--3-3----3--3-3----3-1--0-3-1-0-|
-----------------------------------------|
-----------------------------------------|
-----------------------------------------|
-----------------------------------------|

----3-2-----3-2-5-----3-2--------------|
-3-3----3--3------3-3-----3-1--0-3-1-0-|
---------------------------------------|
---------------------------------------|
---------------------------------------|
---------------------------------------|

repeat everything from intro fig 2
then:
gtr 1
---3-4-3-----------0-0-4-0-0-3-0-0-1-3-1-0-|
--3-----0-3-1-0-1--------------------------|
-------------------------------------------|
-------------------------------------------|(x2)
-------------------------------------------|
-------------------------------------------|

gtr 2:
-------------------------------------------|
------------------12/----------------------|
------------------12/----------------------|
------------------12/----------------------|(x2)
-------------------------------------------|
-------------------------------------------|

then repeat intro fig 2

----------|
----------|
-3-4-3--3-|
-3-4-3--3-|(repeat alot)
----------|
----------|

chorus x 2

outro
-----
-----
-----
-----(x11)
-0-0-
-0-0-

please rate
Tap to rate this tab
# A B C D E F G H I J K L M N O P Q R S T U V W X Y Z