Song name
# A B C D E F G H I J K L M N O P Q R S T U V W X Y Z

Snoop Doggy Dogg - Thats That tab

-------------------------------------------------------------------------------
			     THAT'S THAT SH- Snoop Doggy Dogg
-------------------------------------------------------------------------------
Tabbed by: cuttingham
Email:

Tuning: standard

e|---------------------------------------------------------------------------|
B|-------5-------------------------------------------------------------------|
G|---5--------7----5---------------------------------------------------------|
D|-----------------------9-------------7---9-10-9-7-9----7---9-10-9-7-9----7-|
A|---------------------------------------------------------------------------|
E|---------------------------------------------------------------------------|

e|----------------------------------------------------------"That's----that..|
B|-------5---------------------------------------------------6---------5-----|
G|---5--------7----5---------------------------------------------------------|
D|-----------------------9-------------7---9-10-9-7-9----7-------------------|
A|---------------------------------------------------------------------------|
E|---------------------------------------------------------------------------|

e|---Sh-"--------------------------------------------------------------------|
B|-------5-------------------------------------------------------------------|
G|---5--------7----5---------------------------------------------------------|
D|-----------------------9-------------7---9-10-9-7-9----7---9-10-9-7-9----7-|
A|---------------------------------------------------------------------------|
E|---------------------------------------------------------------------------|

e|----------------------------------------------------------"That's----that..|
B|-------5----------------8-----------------------3----------6---------5-----|
G|---5--------7----5---------------------------------------------------------|
D|---------------------------------------------------------------------------|
A|---------------------------------------------------------------------------|
E|---------------------------------------------------------------------------|

e|---Sh-"--------------------------------------------------------------------|
B|-------5-------------------------------------------------------------------|
G|---5--------7----5---------------------------------------------------------|
D|-----------------------9-------------7---9-10-9-7-9----7---9-10-9-7-9----7-|
A|---------------------------------------------------------------------------|
E|---------------------------------------------------------------------------|

Each row of tablature counts for 2 bars of the song. They are not in order, so you'll 
to listen and differentiate each of them. Simple enough. holla at a playa.


| /  slide up
| \  slide down
| h  hammer-on
| p  pull-off
| ~  vibrato
| +  harmonic
| x  Mute note
===============================================================================
Tap to rate this tab
# A B C D E F G H I J K L M N O P Q R S T U V W X Y Z