Song name
# A B C D E F G H I J K L M N O P Q R S T U V W X Y Z

Snorri Helgason - Carol tab

----------------------------------------------------------------
                             CAROL - Snorri Helgason
----------------------------------------------------------------
Tabbed by: Bowen Jones
E-mail: jonesb93@gmail.com

Tuning: Standard
CAPO V

e|-------5-------2------------0-----------0-------------|
B|--5/7----7\-3----3------------0-------0---------------|
G|--------------------------0---------------------------|
D|--0-------0---------0-0h2-------2---0-----------------|
A|------------------------------------------------------|
E|----------------------------------0-------------------|

e|-------5-------2------------0-------------------------|
B|--5/7----7\-3----3------------0--------0--------------|
G|--------------------------0-----------0---------------|
D|--0------0----------0-0h2-------2---------------------|
A|-----------------------------------------2-1----------|
E|----------------------------------0-------------------|

e|-------------------------------------3-------------------|
B|--2--------2-2--------2--------0h1p0---------------------|
G|----2----------2-------------0----------0----------------|
D|------2--2-------2--2-------2-------------0--------------|
A|--0----------0-------------------------------------------|
E|-------------------------0h3-----------------------------|

e|-------5-------2--------------------------------------|
B|--5/7----5\-3----3--------2--------2--------2----2----|
G|----------------------0h2---2--0h2---2--0h2---2-------|
D|--0-------0-------------------------------------------|
A|----------------------0--0-0-0-0--0-0-0-0--0-0-0-0----|
E|------------------------------------------------------|


************************************

| /   slide up
| \   slide down
| h   hammer-on
| p   pull-off
| ~   vibrato
| +   harmonic
| x   Mute note
| b   Bend
| pb  Pre-bend
| br  Bend release
| pbr Pre-bend release
| brb Bend release bend

************************************
Tap to rate this tab
# A B C D E F G H I J K L M N O P Q R S T U V W X Y Z