Song name
# A B C D E F G H I J K L M N O P Q R S T U V W X Y Z

Snot Rockets - Denied tab

MAIN RIFF

e--------------------------------------------------------
b--------------------------------------------------------
g--------------------------------------------------------
d------7-------------------------------------------------
a--5---5---8---7-----------------------------------------
E--3-------6---5-----------------------------------------


CHORUS

e--------------------------------------------------------
b--------------------------------------------------------
g--------------------------------------------------------
d----9--10--11--11---------------------------------------
a----7--8---9---10---------------------------------------
E--------------------------------------------------------


1,2,3,4 HERE WE GO

CMON MUTHA F*CKA

WON'T YOU GO AND BLOW

I DON'T MIND AND I DON'T CARE

BUT MY SWEET LIL BITCH USED TO TRICK RIGHT HERE

CHORUS:
I-DON'T WANNA BE DENIED(LIKE 3X I THINK)


I FEEL LIGHT I LOOK TALL

BE MY LIL PET

YEAH AND DO US ALL

ONE MORE TRY WITH ALL YOU FEEL

BEND THOSE KNEES IF YOUR GUNNA KNEEL
Tap to rate this tab
# A B C D E F G H I J K L M N O P Q R S T U V W X Y Z