Song name
# A B C D E F G H I J K L M N O P Q R S T U V W X Y Z

Snot - Snooze Button tab

	Band: Snot
	Song: Snooze Button
       Album: Get Some
   Tabbed By: Brian Mulholland (soad670@hotmail.com)

Tuning: half step down, then drop d (C#,G#,C#,F#,Bb,Eb)


  Intro:

|--0------------------------------------|
|----3-----------10---------------------|
|------1----------x---------------------|
|-----------------8---------------------|
|-----------------0---------------------|
|-----------------0---------------------|

  Verse (w/ wah):

|---------7------|
|---------7------|
|---5h7-x-7------|
|----------------|
|----------------|
|----------------|

  Fill 1:

|------------------------------|---------------------------|
|--10-10-x-x-10-10-x-x-10-x-10-|--10-10-x-x-10-10-12-12-10-|
|--10-10-x-x-10-10-x-x-10-x-10-|--10-10-x-x-10-10-12-12-10-|
|--10-10-x-x-10-10-x-x-10-x-10-|--10-10-x-x-10-10-12-12-10-|
|------------------------------|---------------------------|
|------------------------------|---------------------------|

  Fill 2:

|------------------------|
|------------------------|
|------------------------|
|------------------------|
|------------------------|
|-0-3-0-3-0-3-0-3-0-5-6--|

  Chorus:

|---------------------------------|
|---------------------------------|
|---------------------------------|
|--0-0--0-3-0-5-0-6?-5h6-5--------|
|--0-0--0-3-0-5-0-6--5h6-3--------|
|--0-0--0-3-0-5-0-6?-5h6----------|
Tap to rate this tab
 
# A B C D E F G H I J K L M N O P Q R S T U V W X Y Z