Song name
# A B C D E F G H I J K L M N O P Q R S T U V W X Y Z

Snow Hank - Im Movin On tab

hank snow's awesome guitar solo(to make it sound good play next to the bridge) 

e|---------------------------------------------------------------------------|
B|---------------------------------------------------------------------------|
G|-----------2----------2------2---------2-----2-----2----------2--------2---|
D|---0----0------0-0-0------4-----0-4-4-----0-----4----0--4-4-------4--------|
A|---------------------------------------------------------------------------|
E|---------------------------------------------------------------------------|


e|---------------------------------------------------------------------------|
B|-----------------------------3------3--------------------------------------|
G|------2---------2--------3s4-------------0----3s4-4-------4-------0--------|
D|---4----0-4-------0-0-----------5------5------------5-------5--------------|
A|---------------------------------------------------------------------------|
E|---------------------------------------------------------------------------|

e|---------------------------------------------------------------------------|
B|---------------------------------------------------------------------------|
G|-------2----------2---------------2---------2------------------------------|
D|----4-----0-4---------0-0------4-----0-4-------0-0-------------------------|
A|----------------------------------------------------------0-------0-0-0----|
E|------------------------------------------------------4s5----5-------------


e|------------------------------2-2-2-2-2-2------------2-2-2-----------------|
B|------------------------------3-3-3-3-3-3------------3-3-3-----------------|
G|------------------------------2-2-2-2-2-2------------2-2-2-----------------|
D|---------------2-2-2-----0---------------------0---------------------------|
A|-------0-------------------------------------------------------------------|
E|--4s5-----5----------------------------------------------------------------|
Tap to rate this tab
 
# A B C D E F G H I J K L M N O P Q R S T U V W X Y Z