Song name
# A B C D E F G H I J K L M N O P Q R S T U V W X Y Z

Snow Patrol - Get Balsamic Vinegar Quick You Fool tab

Snow Patrol
Get Balsamic Vinegar... Quick You Fool
Songs For Polar Bears

we luv you randy...

standard tuning
Bass Intro
|-------------------------|
|-------------------------|
|-------------------------|
|-3-3-x33-030-3-3-x33-030-|

Guitar 2    (15's & 14's)
|-1515151515151515-1414141414141414-|        |-7-----|
|-----------------------------------|        |---7-8-|
|-----------------------------------|        |-------|
|-----------------------------------|        |-------|
|-----------------------------------|        |-------|
|-----------------------------------|x6, then|-------|throughout song

Guitar 1 verse
|----------------------------------|----------------------------------|
|----------------------------------|----------------------------------|
|----------------------------------|----------------------------------|
|-55555555555555558888888855555555-|-55555555555555558888888855555555-|
|-55555555555555558888888855555555-|-55555555555555558888888855555555-|
|-33333333333333336666666633333333-|-33333333333333336666666633333333-|

chorus thingy
|-----------------------------------------------|
|-----------------------------------------------|
|----4~---------------------4~------------------|
|-5~-5~-5555555555555555-5~-5~-5555555555555555-|
|-7~-3~-5555555555555555-7~-3~-5555555555555555-|
|-5~----3333333333333333-5~----3333333333333333-|

Outro
|-------------|
|-------------|
|-------4~----|
|-5~----5~----|
|-7~----3~----|
|-5~----------|

doesn't get much easier than that...B)
Tap to rate this tab
 
# A B C D E F G H I J K L M N O P Q R S T U V W X Y Z