Song name
# A B C D E F G H I J K L M N O P Q R S T U V W X Y Z

Snow Patrol - You Could Be Happy Accoustic tab

This is an amazing song, and it sounds great on acoustic guitar

Alternatively you can use capo 3rd fret and use the chords D5, A, G
for the verse and Em, D5, G

Credit for tabbing this song goes to whoever posted it on youtube, 
this is the (closest) tab to what he played but I think it should be right

INTRO

  Fsus2            C                 Bb             
E---------3-------|-----------------|-----------------|-----------------|
B-----6-----6---6-|---------5-------|---------3-------|---------3-------|
G---5---5-----5---|-----5-----5---5-|-----3-----3---3-|-----3-----3---3-|-x2
D-3---------------|---5---5-----5---|---3---3-----3---|---3---3-----3---|
A-----------------|-3---------------|-1---------------|-1---------------|
E-----------------|-----------------|-----------------|-----------------|

                                                               You could be

 Fsus2            C                 Bb             
E---------3-------|-----------------|-----------------|-----------------|
B-----6-----6---6-|---------5-------|---------3-------|---------3-------|
G---5---5-----5---|-----5-----5---5-|-----3-----3---3-|-----3-----3---3-|
D-3---------------|---5---5-----5---|---3---3-----3---|---3---3-----3---|
A-----------------|-3---------------|-1---------------|-1---------------|
E-----------------|-----------------|-----------------|-----------------|

  happy             and I wont know                            And you wern't


  Fsus2            C                 Bb             
E---------3-------|-----------------|-----------------|-----------------|
B-----6-----5---5-|---------5-------|---------3-------|---------3-------|
G---5---5-----6---|-----5-----5---5-|-----3-----3---3-|-----3-----3---3-|
D-3---------------|---5---5-----5---|---3---3-----3---|---3---3-----3---|
A-----------------|-3---------------|-1---------------|-1---------------|
E-----------------|-----------------|-----------------|-----------------|

  happy the day I  watched you go                               And all the 

Fsus2            C                 Bb             
E---------3-------|-----------------|-----------------|-----------------|
B-----6-----6---6-|---------5-------|---------3-------|---------3-------|
G---5---5-----5---|-----5-----5---5-|-----3-----3---3-|-----3-----3---3-|
D-3---------------|---5---5-----5---|---3---3-----3---|---3---3-----3---|
A-----------------|-3---------------|-1---------------|-1---------------|
E-----------------|-----------------|-----------------|-----------------|

 things I wished I  had not said                               Are played in 

Fsus2            C                 Bb             
E---------3-------|-----------------|-----------------|-----------------|
B-----6-----6---6-|---------5-------|---------3-------|---------3-------|
G---5---5-----5---|-----5-----5---5-|-----3-----3---3-|-----3-----3---3-|
D-3---------------|---5---5-----5---|---3---3-----3---|---3---3-----3---|
A-----------------|-3---------------|-1---------------|-1---------------|
E-----------------|-----------------|-----------------|-----------------|

  loops till its    madness in my head                        Is it too late

  Gm               Fsus2             Bb
E-----------------|---------3-------|-----------------|-----------------|
B---------3-------|-----6-----6---6-|---------3-------|---------3-------|
G-----3-----3---3-|---5---5-----5---|-----3-----3---3-|-----3-----3---3-|
D---5---5-----5---|-3---------------|---3---3-----3---|---3---3-----3---|
A-----------------|-----------------|-1---------------|-1---------------|
E-3---------------|-----------------|-----------------|-----------------|

  to remind you     of how we were                           But not our last

  Gm                Fsus2            Bb
E-----------------|---------3-------|-----------------|-----------------|
B---------3-------|-----6-----6---6-|---------3-------|---------3-------|
G-----3-----3---3-|---5---5-----5---|-----3-----3---3-|-----3-----3---3-|
D---5---5-----5---|-3---------------|---3---3-----3---|---3---3-----3---|
A-----------------|-----------------|-1---------------|-1---------------|
E-3---------------|-----------------|-----------------|-----------------|

  days of silence,  screaming, blur                       Most of what I re-

  Gm               Fsus2             Bb
E-----------------|---------3-------|-----------------|-----------------|
B---------3-------|-----6-----6---6-|---------3-------|---------3-------|
G-----3-----3---3-|---5---5-----5---|-----3-----3---3-|-----3-----3---3-|
D---5---5-----5---|-3---------------|---3---3-----3---|---3---3-----3---|
A-----------------|-----------------|-1---------------|-1---------------|
E-3---------------|-----------------|-----------------|-----------------|

  member            makes me sure                            I should have            

  Gm                Fsus2            Bb
E-----------------|---------3-------|-----------------|-----------------|
B---------3-------|-----6-----6---6-|---------3-------|---------3-------|
G-----3-----3---3-|---5---5-----5---|-----3-----3---3-|-----3-----3---3-|
D---5---5-----5---|-3---------------|---3---3-----3---|---3---3-----3---|
A-----------------|-----------------|-1---------------|-1---------------|
E-3---------------|-----------------|-----------------|-----------------|

  stopped you from walking out the door                      You could be

 Fsus2            C                 Bb             
E---------3-------|-----------------|-----------------|-----------------|
B-----6-----6---6-|---------5-------|---------3-------|---------3-------|
G---5---5-----5---|-----5-----5---5-|-----3-----3---3-|-----3-----3---3-|
D-3---------------|---5---5-----5---|---3---3-----3---|---3---3-----3---|
A-----------------|-3---------------|-1---------------|-1---------------|
E-----------------|-----------------|-----------------|-----------------|

  happy,            I hope you are                           You made me 

 Fsus2            C                 Bb             
E---------3-------|-----------------|-----------------|-----------------|
B-----6-----6---6-|---------5-------|---------3-------|---------3-------|
G---5---5-----5---|-----5-----5---5-|-----3-----3---3-|-----3-----3---3-|
D-3---------------|---5---5-----5---|---3---3-----3---|---3---3-----3---|
A-----------------|-3---------------|-1---------------|-1---------------|
E-----------------|-----------------|-----------------|-----------------|

  happier than I'd been by far                            And somehow every-

 Fsus2            C                 Bb             
E---------3-------|-----------------|-----------------|-----------------|
B-----6-----6---6-|---------5-------|---------3-------|---------3-------|
G---5---5-----5---|-----5-----5---5-|-----3-----3---3-|-----3-----3---3-|
D-3---------------|---5---5-----5---|---3---3-----3---|---3---3-----3---|
A-----------------|-3---------------|-1---------------|-1---------------|
E-----------------|-----------------|-----------------|-----------------|
 
  thing I own       smells of you                            And for the     

 Fsus2            C                 Bb             
E---------3-------|-----------------|-----------------|-----------------|
B-----6-----6---6-|---------5-------|---------3-------|---------3-------|
G---5---5-----5---|-----5-----5---5-|-----3-----3---3-|-----3-----3---3-|
D-3---------------|---5---5-----5---|---3---3-----3---|---3---3-----3---|
A-----------------|-3---------------|-1---------------|-1---------------|
E-----------------|-----------------|-----------------|-----------------|

  tiniest moment    its all not true                          Do the things

  Gm               Fsus2             Bb
E-----------------|---------3-------|-----------------|-----------------|
B---------3-------|-----6-----6---6-|---------3-------|---------3-------|
G-----3-----3---3-|---5---5-----5---|-----3-----3---3-|-----3-----3---3-|
D---5---5-----5---|-3---------------|---3---3-----3---|---3---3-----3---|
A-----------------|-----------------|-1---------------|-1---------------|
E-3---------------|-----------------|-----------------|-----------------|

  that you always   wanted to do                          Without me there to

 Gm               Fsus2             Bb
E-----------------|---------3-------|-----------------|-----------------|
B---------3-------|-----6-----6---6-|---------3-------|---------3-------|
G-----3-----3---3-|---5---5-----5---|-----3-----3---3-|-----3-----3---3-|
D---5---5-----5---|-3---------------|---3---3-----3---|---3---3-----3---|
A-----------------|-----------------|-1---------------|-1---------------|
E-3---------------|-----------------|-----------------|-----------------|

  hold you back     don't think, just do                   More than anything  

 Gm               Fsus2             Bb
E-----------------|---------3-------|-----------------|-----------------|
B---------3-------|-----6-----6---6-|---------3-------|---------3-------|
G-----3-----3---3-|---5---5-----5---|-----3-----3---3-|-----3-----3---3-|
D---5---5-----5---|-3---------------|---3---3-----3---|---3---3-----3---|
A-----------------|-----------------|-1---------------|-1---------------|
E-3---------------|-----------------|-----------------|-----------------|

  I want to see     you go                                  Take a glorious

 Gm               Fsus2             Bb
E-----------------|---------3-------|-----------------|-----------------|
B---------3-------|-----6-----6---6-|---------3-------|---------3-------|
G-----3-----3---3-|---5---5-----5---|-----3-----3---3-|-----3-----3---3-|
D---5---5-----5---|-3---------------|---3---3-----3---|---3---3-----3---|
A-----------------|-----------------|-1---------------|-1---------------|
E-3---------------|-----------------|-----------------|-----------------|

  bite out          of the whole world

 Fsus2            C                 Bb             
E---------3-------|-----------------|-----------------|-----------------|
B-----6-----6---6-|---------5-------|---------3-------|---------3-------|
G---5---5-----5---|-----5-----5---5-|-----3-----3---3-|-----3-----3---3-|
D-3---------------|---5---5-----5---|---3---3-----3---|---3---3-----3---|
A-----------------|-3---------------|-1---------------|-1---------------|
E-----------------|-----------------|-----------------|-----------------|

 Fsus2            C                 Bb                              Fsus2
E---------3-------|-----------------|-----------------|---------------3-|
B-----6-----6---6-|---------5-------|---------3-------|---------3-----6-|
G---5---5-----5---|-----5-----5---5-|-----3-----3---3-|-----3-----3---5-|
D-3---------------|---5---5-----5---|---3---3-----3---|---3---3-----3-3-|
A-----------------|-3---------------|-1---------------|-1-------------3-|
E-----------------|-----------------|-----------------|---------------3-|

Happy playing and enjoy :)
ahooper1993



Tap to rate this tab
# A B C D E F G H I J K L M N O P Q R S T U V W X Y Z