Song name
# A B C D E F G H I J K L M N O P Q R S T U V W X Y Z

Snow Patrol - Please Just Take These Photos From My Hands tab

intro play twice


E---------------------------------|
B---------------------------------|
G-4-4-4-4-4-4-4-4-4-4-4-4-4-4-4-4-|
D-4-4-4-4-4-4-4-4-4-4-4-4-4-4-4-4-|
A-2-2-2-2-2-2-2-2-2-2-2-2-2-2-2-2-|
E---------------------------------|

E---------------------------------|
B---------------------------------|
G-4-4-4-4-4-4-4-4-4-4-4-4-4-4-4-4-|
D-2-2-2-2-2-2-2-2-2-2-2-2-2-2-2-2-|
A-4-4-4-4-4-4-4-4-4-4-4-4-4-4-4-4-|
E---------------------------------|

E----------------------------------|
B----------------------------------|
G-4-4-4-4-4-4-4-4-4-4-4-4-4-4-4-4--|
D-2-2-2-2-2-2-2-2-2-2-2-2-2-2-2-2--|
A-0-0-0-0-0-0-0-0-0-0-0-0-0-0-0-0--|
E----------------------------------|


E-----------------------------------|
B-----------------------------------|
G-4-4-4-4-4-4-4-4-4-4-4-4-4-4-4-4-4-|
D-2-2-2-2-2-2-2-2-2-2-2-2-2-2-2-2-2-|
A-4-4-4-4-4-4-4-4-4-4-4-0-0-0-0-0-0-|
E-----------------------------------|


***********************************************


E---------------------------------|
B---------------------------------|
G-4-4-4-4-4-4-4-4-4-4-4-4-4-4-4-4-|
D-4-4-4-4-4-4-4-4-4-4-4-4-4-4-4-4-|
A-2-2-2-2-2-2-2-2-2-2-2-2-2-2-2-2-|
E---------------------------------|
        ...The yelloewed page


E---------------------------------|
B---------------------------------|
G-4-4-4-4-4-4-4-4-4-4-4-4-4-4-4-4-|
D-2-2-2-2-2-2-2-2-2-2-2-2-2-2-2-2-|
A-4-4-4-4-4-4-4-4-4-4-4-4-4-4-4-4-|
E---------------------------------|
                           ....of the


E----------------------------------|
B----------------------------------|
G-4-4-4-4-4-4-4-4-4-4-4-4-4-4-4-4--|
D-2-2-2-2-2-2-2-2-2-2-2-2-2-2-2-2--|
A-0-0-0-0-0-0-0-0-0-0-0-0-0-0-0-0--|
E----------------------------------|
...books and books


E-----------------------------------|
B-----------------------------------|
G-4-4-4-4-4-4-4-4-4-4-4-4-4-4-4-4-4-|
D-2-2-2-2-2-2-2-2-2-2-2-2-2-2-2-2-2-|
A-4-4-4-4-4-4-4-4-4-4-4-0-0-0-0-0-0-|
E-----------------------------------|

Chorus same chords and pattern.
Tap to rate this tab
 
# A B C D E F G H I J K L M N O P Q R S T U V W X Y Z