Song name
# A B C D E F G H I J K L M N O P Q R S T U V W X Y Z

Snow Patrol - Shut Your Eyes tab

Highlighted       Show chord diagrams
Hey, 
This is no hard tab because it's almost the same chords whole song long =)
Enjoy!

Capo 1st!

Play this the whole song except for the Chorus:
            
|----x-----x--------x----x----------|-----x---x------x----x---------|
|----3-----3--------3----3----------|-----1---1------x----x---------|
|----2-----2--------0----0----------|-----2---2------0----0---------|
|----0-----0--------2----2----------|-----0---0------0----0---------|
|----x-----x--------x----x----------|-----x---x------x----x---------|
|----x-----x--------x----x----------|-----x---x------3----3---------|

Chords for the Chorus

    Bb     Gm  Csus2  Bbsus2
|----6-----3-----3------1----------|
|----6-----3-----3------1----------|
|----7-----3-----5------3----------|
|----8-----5-----5------3----------|
|----8-----5-----3------1----------|
|----6-----3-----3------1----------|

Shut your eyes and think of somewhere 
Somewhere cold and caked in snow 
By the fire we break the quiet 
Learn to wear eachother well 


             Bb                 Gm
And when the worrying starts to hurt 
        Csus2                     Bbsus2
And the world feels like graves of dirt 
Bb                     Gm
Just close your eyes until 
      Csus2
You can imagine this place
Yeah, our secret space at will 


Shut your eyes, I spin the big chair 
And you'll feel dizzy, light and free 
And falling gently on the cushion 
You can come and sing to me 

             Bb                 Gm
And when the worrying starts to hurt 
        Csus2                     Bbsus2
And the world feels like graves of dirt 
Bb                     Gm
Just close your eyes until 
      Csus2
You can imagine this place
Yeah, our secret space at will 

Shut your eyes, Shut your eyes
Shut your eyes, Shut your eyes

Shut your eyes and sing to me
(Shut your eyes and sing to me)
Shut your eyes and sing to me
(Shut your eyes and sing to me)
Shut your eyes and sing to me
(Shut your eyes and sing to me)
Shut your eyes and sing to me
(Shut your eyes and sing to me)

Tap to rate this tab
 
# A B C D E F G H I J K L M N O P Q R S T U V W X Y Z