Song name
# A B C D E F G H I J K L M N O P Q R S T U V W X Y Z

Snow Patrol - The Only Noise tab

Help us improve GuitareTab! Take a short survey!
Hey,
tabbed this song out pretty quickly apon hearing it ages back.
and Myles wanted me to tab it out,
so here you go buddy.

jacob_jacomo@hotmail.com
if you want to chat. feel free :)
big thanks out there to my best friend Stormi.
love you heaps.

verse:
e---------------------------|
B-7---7---5---5---3---3---5-|
G---0---0---0---0---0---0---|
D---------------------------|
A-7---7---5---5---3---3---5-|
E--------------(x4)---------|

chorus:
e-----------------------|
B-5---3---8---8---8---8-|
G---0---0---0---0---0---|
D-----------------------|
A-5---3---8---8---8---8-|
E-----------------------|

pretty easy,
no capo's
no fingering changes, just slide your hand up and down the fret as need.
Related for The Only Noise tab