Song name
# A B C D E F G H I J K L M N O P Q R S T U V W X Y Z

Snow Patrol - The Lightning Strike tab

      the lightning strike by snow patrol

                      solo

  ------------------------------------------------|
  ---15------11-----13----------------------------|
  -------------------------8/10-------------------|  x4
  ------------------------------------------------|
  ------------------------------------------------|
  ------------------------------------------------|
                                                  \
                                                   >    --      x2
                                                  /
  ------------------------------------------------|
  --------------------------------------15--------|
  ------------------------------------------------|  x8
  ------------------------------------------------|
  ------------------------------------------------|
  ------------------------------------------------|


                      verse

  ------------------------------------------------|
  ----11---11------------------------15-----------|
  ------------------------------------------------|
  ------------------------------------------------|  x4
  ------------------------------------------------|
  ------------------------------------------------|


  ------------------------------------------------|
  ----11---11-------------------------13----------|
  ------------------------------------------------| x4
  ------------------------------------------------|
  ------------------------------------------------|
  ------------------------------------------------|


  slide = /
Tap to rate this tab
# A B C D E F G H I J K L M N O P Q R S T U V W X Y Z