Song name
# A B C D E F G H I J K L M N O P Q R S T U V W X Y Z

Snow Patrol - Crack The Shutters Acoustic tab

Crack The Shutters
Snow Patrol
A hundred Million Suns, 2008
Tabbed by Myles HAslam
Written by Jesus (Aka. Gary Lightbody)


This tab was first made by my good buddy Myles Haslam.
I've cleaned it up slightly, but cheers to Myles.

any questions feel free.
Jacob - jacob_jacomo@hotmail.com
Myles - quiksilver_myles@hotmail.com

.
Verse:
Guitar 1


e|---0-----0-----0-----0-----------|
B|---1-----1-----1-----1--1--------|
G|---0-----0-----2-----2--0--------|
D|---2-----2-----3-----2--0--------|
A|---3-----3-----3-----0--0--------|
E|---3-----0--------------3--------|

or

e|---3-----3-----0-----0--0------|
B|---1-----1-----1-----1--1------|
G|---0-----0-----0-----2--0------|
D|---0-----2-----3-----3--3------|
A|---3-----3-----3-----3--3------|
E|---------0---------------------|

Guitar 2 (only second verse)

e|-------------------------------|
B|-------------------------------|
G|---5-----9-----10--------------|
D|---5-----9-----10----7--5------|
A|---3-----7-----8-----7--5------|
E|---------------------5--3------|

Chorus:
Guitar 1

e|---0-----3-----0-----0---------|
B|---1-----3-----1-----1---------|
G|---0-----0-----2-----2---------|
D|---2-----2-----3-----3---------|
A|---3-----3-----3-----3---------|
E|-------------------------------|
"Crack The SHutters open Wide i wanna bathe you in the light of day"


e|---0-----0-----0-----0---------|
B|---1-----3-----1-----1---------|
G|---2-----0-----2-----2---------|
D|---2-----0-----3-----3---------|
A|---0-----2-----3-----3---------|
E|---------3---------------------|
"And just watch you as the rays, tangle up around your face and body"


e|---0-----3-----0-----0---------|
B|---1-----3-----1-----1---------|
G|---0-----0-----2-----2---------|
D|---2-----2-----3-----3---------|
A|---3-----3-----3-----3---------|
E|-------------------------------|
"I could sit for hours finding new ways to be awed each minute"

e|---0-----0-----0-----0---------|
B|---1-----3-----1-----1---------|
G|---2-----0-----2-----2---------|
D|---2-----0-----3-----3---------|
A|---0-----2-----3-----3---------|
E|---------3---------------------|
"cause the daylight seems to want you just as much as i want you"


Guitar 2:
e|-8-----10--|
B|-8-----8---|
G|-9-----9---|
D|-10----10--|
A|-----------|
E|-----------|
Tap to rate this tab
# A B C D E F G H I J K L M N O P Q R S T U V W X Y Z