Song name
# A B C D E F G H I J K L M N O P Q R S T U V W X Y Z

Snow Patrol - Give Me Strength tab

Verse + most of the song

E|--11----------11----------11----------11----------|
B|------12----------12----------12----------12------|
G|----------11----------11----------11----------11--|
D|--------------------------------------------------|
A|--------------------------------------------------|
E|--------------------------------------------------|

E|--------------------------------------------------|
B|--------------------------------------------------|
G|--------------------------------------------------|
D|--9--9--9--9--6--6--6--6--------------------------|
A|--------------------------6--6--6--6--7--7--7--7--|
E|--------------------------------------------------|



Pre Chorus (not 100% on this part)

B                         E
time slips its tired hand into our tired hands

B                         E
leaves here till that day and so much more to say (lyrics?)



Chorus
             B             G#m
you give the strength to me
               D#            E
the strength i never had
	B             G#m
i was a mess you see
                D#            E
i lost the ????????? (lyrics??)

            B             G#m
you drag me up and out
           D#            E
out of the darkest place
              B             G#m
there's not a single doubt
           D#            E
when i can see your faces





That's pretty much it. 
Tap to rate this tab
 
# A B C D E F G H I J K L M N O P Q R S T U V W X Y Z