Song name
# A B C D E F G H I J K L M N O P Q R S T U V W X Y Z

Snow Patrol - Disaster Button tab

Hi.

This, in my opinion, is on of their best songs, and whilst learning it, I noticed 
there was no tab for the
solo, and its in two parts, on part is just guitar. This part was relatively easy 
to tab, so I will, 
however the next part there they are all singing over the guitar, I cannot work 
out, but when I do I will 
be sure to post it. here is the tab for the first part, for the second you can 
just play the chords to the 
chorus under it.

Tuning: Standard

Guitar 1:

e|--------------------------------------------------7--------|
B|-7-7-7-7-7-7-7-7-9-9-9-9---------5-5-5-5-5-5-5-5----5------|
G|-------------------------6-6-6-6----------------------8b-8-|
D|-4-4-4-4-4-4-4-4-6-6-6-6---------2-2-2-2-2-2-2-2-----------|
A|-------------------------4-4-4-4---------------------------|
E|-----------------------------------------------------------|


e|-19--------------------19-19-19-19-19-19-19-19-19-19-19-19--|
B|----17--------19-21-17--------------------------------------|
G|-------20b-20-----------------------------------------------|
D|------------------------------------------------------------|
A|------------------------------------------------------------|
E|------------------------------------------------------------|


Guitar 2:


e|-----------------------------------------------------------------|
B|-----------------------------------------------------------------|
G|-----------------------------------------------------------------|
D|-9-9-9-9-9-9-9-9-9-9-9-9-9-9-9-9--9-9-9-9-9-9-9-9-9-9-9-9-9-9-9--|
A|-9-9-9-9-9-9-9-9-9-9-9-9-9-9-9-9--7-7-7-7-7-7-7-7-7-7-7-7-7-7-7--|\
E|-7-7-7-7-7-7-7-7-7-7-7-7-7-7-7-7--9-9-9-9-9-9-9-9-9-9-9-9-9-9-9--| \
                                                                      \
e|------------------------------------------------------------------|   X2 (Second time both guitars
B|------------------------------------------------------------------|  /   as its the part I cannot
G|-9-9-9-9-9-9-9-9-9-9-9-9-9-9-9-9--7-7-7-7-7-7-7-7-7-7-7-7-7-7-7-7-| /   figure out, with the "oooh
D|-9-9-9-9-9-9-9-9-9-9-9-9-9-9-9-9--7-7-7-7-7-7-7-7-7-7-7-7-7-7-7-7-|/        aahhh"-ing)
A|-7-7-7-7-7-7-7-7-7-7-7-7-7-7-7-7--5-5-5-5-5-5-5-5-5-5-5-5-5-5-5-5-|
E|------------------------------------------------------------------|

That's it really, Hope this helps and feel free to add comments, the second part will join soon.

Thanks,
       Calum.

Tap to rate this tab
# A B C D E F G H I J K L M N O P Q R S T U V W X Y Z