Song name
# A B C D E F G H I J K L M N O P Q R S T U V W X Y Z

Snow Patrol - Give Me Strength Acoustic tab

Snow Patrol Give me strenght
album Up to now
tabbed by limp05


Tuning  E A D G B D

Tune the high 'E' To a'D'
***Capo 4th fret****

Intro
Guitar 1

D-13--------13---------13---------13------------|
B----12---------12---------12---------12--------|
G-------11----------11---------11---------11----|
D-----------------------------------------------|
A-----------------------------------------------|
E-----------------------------------------------|


GUITAR 2

D-----------------------------------------------|
B-----------------------------------------------|
G-----------------------------------------------|
D-----------------------------------------------|
A------------------6-6-6-6-7-7-7-7--------------|
E--7-7-7-7-4-4-4-4------------------------------|




Time grabs its tired hand.......................

      (B)               (G#/B)

D-0-0-0-0-0-0-0-0- -0-0-0-0-0-0-0-0-------|
B-0-0-0-0-0-0-0-0- -0-0-0-0-0-0-0-0-------|
G-0-0-0-0-0-0-0-0- -0-0-0-0-0-0-0-0-------|      X2
D-5-5-5-5-5-5-5-5- -5-5-5-5-5-5-5-5-------|
A-5-5-5-5-5-5-5-5- -5-5-5-5-5-5-5-5-------|
E-3-3-3-3-3-3-3-3- -0-0-0-0-0-0-0-0-------|



You give the
strenght of me..........


           Chorus
    (B)               (G#/B)            (D#m)            (G#/E)

D-0-0-0-0-0-0-0-0 -0-0-0-0-0-0-0-0 -0-0-0-0-0-0-0-0 -0-0-0-0-0-0-0-0-|
B-0-0-0-0-0-0-0-0 -0-0-0-0-0-0-0-0 -0-0-0-0-0-0-0-0 -0-0-0-0-0-0-0-0-|
G-0-0-0-0-0-0-0-0 -0-0-0-0-0-0-0-0 -0-0-0-0-0-0-0-0 -0-0-0-0-0-0-0-0-|
D-5-5-5-5-5-5-5-5 -5-5-5-5-5-5-5-5 -7-7-7-7-7-7-7-7 -5-5-5-5-5-5-5-5-|
A-5-5-5-5-5-5-5-5 -5-5-5-5-5-5-5-5 -5-5-5-5-5-5-5-5 -3-3-3-3-3-3-3-3-|
E-3-3-3-3-3-3-3-3 -0-0-0-0-0-0-0-0 -7-7-7-7-7-7-7-7 -0-0-0-0-0-0-0-0-|

Plse leave feedback
Snow patrol for life baby!!!!!!!!!!!!! lol
Tap to rate this tab
 
# A B C D E F G H I J K L M N O P Q R S T U V W X Y Z