Song name
# A B C D E F G H I J K L M N O P Q R S T U V W X Y Z

Snow Patrol - Set Down Your Glass tab

----------------------------------------------------------------------------
		        SET DOWN YOUR GLASS - Snow Patrol
----------------------------------------------------------------------------
Tabbed by: Joel Lawson

The other tabs on here were ok, but after listening to the track I think
that this tab is probably closer to the way the song is actually played.
Very simple song, but I love it.


Tuning: Standard

Main Riff
e|-----------------------------------------------------------------------|
B|-----7-------7---------------------------------------------------------|
G|---0---0---0---0-------------------------------------------------------|
D|-0-------7-------------------------------------------------------------|
A|-----------------------------------------------------------------------|
E|-----------------------------------------------------------------------|

Other part of verse
e|-----2-------2-------2-------2-------2-------2------------------------|
B|----------------------------------------------------------------------|
G|---0---0---0---0---0---0---0---0---0---0---0---0----------------------|
D|----------------------------------------------------------------------|
A|---------0-------2-------0---------------0----------------------------|
E|-3-------------------------------3------------------------------------|

Chorus
e|-2---2---2---2---2---2---2---2---2---2---2---2---2---2---2---2---2-------|
B|-------------------------------------------------------------------------|
G|---0---0---0---0---0---0---0---0---0---0---0---0---0---0---0---0---0-----|
D|-------------------------------------------------------------------------|
A|-----------------0---0---0---0---0---2---2---2---2---0---0---0---0-------|
E|-3---3---3---3-----------------------------------------------------------|

e|-2---2---2---2---2---2---2---2---2----------|
B|--------------------------------------------|
G|---0---0---0---0---0---0---0---0---0--------|
D|--------------------------------------------|
A|-----------------0---0---0---0---0----------|
E|-3---3---3---3------------------------------|

That's it.
Tap to rate this tab
# A B C D E F G H I J K L M N O P Q R S T U V W X Y Z