Song name
# A B C D E F G H I J K L M N O P Q R S T U V W X Y Z

Snow Patrol - An Olive Grove Facing The Sea chords

Highlighted       Show chord diagrams
This song is from the album 'When It's All Over We Still Have to Clear Up'

Tuning:EADGCC (B String is tuned up a step and the E String down)

Verse:

  Bb5    D5   C5
C|-0-----0-----0--|
C|-0-----0-----0--|
G|-0-----0-----0--|
D|-3-----7-----5--|
A|-1-----5-----3--|
E|-0-----0-----0--|

Pre-Chorus:

  D#5    G5
C|-0-----0--|
C|-0-----0--|
G|-0-----0--|
D|-8-----12-|
A|-6-----10-|
E|-0-----0--|

Chorus:
  C5    B5
C|----------|
C|-0-----0--|
G|-0-----0--|
D|-0-----0--|
A|-10----9--|
E|-8-----7--|


Verse:

  Bb5    D5   C5
C|-0-----0-----0--|
C|-0-----0-----0--|
G|-0-----0-----0--|
D|-3-----7-----5--|
A|-1-----5-----3--|
E|-0-----0-----0--|
Tap to rate this tab
 
# A B C D E F G H I J K L M N O P Q R S T U V W X Y Z