Song name
# A B C D E F G H I J K L M N O P Q R S T U V W X Y Z

Snow Patrol - Set Down Your Glass tab


Guitar 1: Standard Tuning
Guitar 2: Capo 2nd

_______________  GUITAR 1___________________________

Verse

E------------------------|
B-------7--------7-------|
G-----0---0----0---0-----|
D---0--------7-----------|                x 8
A------------------------|
E------------------------|

the bridge/pre chorus

e------2---------2---------2---------2-------------------|
B--------------------------------------------------------|
G----0---0-----0---0-----0---0-----0---0-----------------|
D--------------------------------------------------------|
A------------0---------2---------0-----------------------|
E--3-----------------------------------------------------|

e------2---------2----|
B---------------------|
G----0---0-----0---0--|
D---------------------|
A------------0--------|
E--3------------------|


Chorus


e-------------------------------------------------------------|
B-------------------------------------------------------------|
G------0-----0------0------0-----2-----2-----2-----2----------|
D-------------------------------------------------------------|
A-----------------------------0-----0-----0-----0-------------|
E--3------3------3------3-------------------------------------|

e------------------------------------------------------------|
B------------------------------------------------------------|
G-----4------4------4-------4------2------2-------2------2---|
D------------------------------------------------------------|
A-2------2------2-------2-------0------0------0------0-------|
E------------------------------------------------------------|


 e---------------------------------------------------------------|
B----------------------------------------------------------------|
G------0-----0------0------0-----2-----2-----2-----2-------------|
D----------------------------------------------------------------|
A-----------------------------0-----0-----0-----0----------------|
E--3------3------3------3----------------------------------------|

________________ Guitar 2 _________________________

Guitar 2 only plays during the chorus.
Remember, Capo on the 2nd fret

e-----
B--1--
G--2--   x 8
D--2--
A-----
E--1--

e-----
B--1--
G-----  x 8
D-----
A--2--
E--3--

e-----
B--1--
G--2--   x 8
D--2--
A-----
E-----

e-----
B--1--
G-----   x 8
D-----
A--2--
E--3--

e-----
B--1--
G--2--  x 8
D--2--
A-----
E--1--

e-----
B--1--
G----- x 8
D-----
A--2--
E--3--

e-----
B--1--
G----- x 1
D--2--
A--3--
E-----


The entire song goes like this.


Verse x 8

Bidge/Pre Chorus x 1

Verse x 6

Bridge/Pre Chorus x 1

Verse x 2

Chorus x 1

Verse x 8

Bridge/Pre Chorus

Verse x 6

Bridge/Pre Chorus x 1

Verse x 2

Chorus x 1

Verse x 2

Chorus x 1

Verse x 4

This is my first tab, thanks guys
Tap to rate this tab
# A B C D E F G H I J K L M N O P Q R S T U V W X Y Z