Song name
# A B C D E F G H I J K L M N O P Q R S T U V W X Y Z

Snow Patrol - Fifteen Minutes Old tab

Snow Patrol - Fifteen Minutes Old

This is a really easy song to learn, within an hour you can play this song reasonably well.

I tabbed this the way Gary Lightbody (Snow Patrol member) plays it.
I've checked it over and I'm pretty sure it's 100% correct...
To nail the timing you'll have to listen to the song.

/=slide 

e------------------------------[
B------------------------------[
G------------------------------[
D---------0-----0-----0--------[
A---7/9------9-----4-----4--5--[ (x9)
E------------------------------[

e----------------------------------------------------------------------[
B----------------------------------------------------------------------[
G----------------------------------------------------------------------[
D---------0-----0-----0-----------0---0---0----0---0---0---0----0---0--[
A---7/9------9-----4-----4--5---5---5---5------------------------------[(X1)
E--------------------------------------------7---7---7---7----3---5----[

e-------------------------------------------------------------------[
B-------------------------------------------------------------------[
G-------------------------------------------------------------------[
D---------0-----0-----0---------(SMALL)-0---0---0---0----0---0---0--[
A---7/9------9-----4-----4--5---(PAUSE)-----------------------------[ (X1)
E-----------------------------------------7---7---7---7----3---5----[

e------------------------------[
B------------------------------[
G------------------------------[
D---------0-----0-----0--------[
A---7/9------9-----4-----4--5--[ (X7)
E------------------------------[

e-------------------------------------------------------------------[
B-------------------------------------------------------------------[
G-------------------------------------------------------------------[
D---------0-----0-----0---------0---0-------0---0---0---0----0---0--[
A---7/9------9-----4-----4--5-----5---5-----------------------------[ (X1)
E-----------------------------------------7---7---7---7----3---5----[

e----------------------------------------------------------------------[
B----------------------------------------------------------------------[
G----------------------------------------------------------------------[
D---------0-----0-----0-----------0---0---0----0---0---0---0----0---0--[
A---7/9------9-----4-----4--5---5---5---5------------------------------[(X1)
E--------------------------------------------7---7---7---7----3---5----[

e------------------------------[
B------------------------------[
G------------------------------[
D---------0-----0-----0--------[
A---7/9------9-----4-----4--5--[ (X2)
E------------------------------[

(I'm not sure how long the pause is, but again if you listen to the song you'll get it right)





Tap to rate this tab
# A B C D E F G H I J K L M N O P Q R S T U V W X Y Z