Song name
# A B C D E F G H I J K L M N O P Q R S T U V W X Y Z

Snow Patrol - Set Down Your Glass tab

SET DOWN YOUR GLASS - Snow Patrol
Tabbed by: Henry van het Hul

Fine work posted before and keep adding! Allthough I do think that Snow Patrol doesn not 
this song with a capo.
I believe these tabs sound more to the original, but the part on the E string might be 
fore some.
I have not added the chorus because I am still not sure about that part.


Tuning: Standard
Intro

e|----------------------|-----------------------|-----------------------|------------------------|
B|-------7----------7---|--------7----------7---|--------7----------7---|---------7----------7---|
G|----0----0-----0-----0|-----0----0-----0-----0|-----0----0-----0-----0|------0----0-----0-----0|
D|------------7---------|-------------7---------|-------------7---------|--------------7---------|
A|-5--------------------|--5--------------------|--5--------------------|---5--------------------|
E|----------------------|-----------------------|-----------------------|------------------------|


Verse 1

     Just close   your eyes,                            and   count   to  five

e|----------------------|------------------------|-----------------------|------------------------|
B|-------7----------7---|--------7----------7----|--------7----------7---|---------7----------7---|
G|----0----0-----0-----0|-----0----0-----0-----0-|-----0----0-----0-----0|------0----0-----0-----0|
D|------------7---------|-------------7----------|-------------7---------|--------------7---------|
A|-5--------------------|--5---------------------|--5--------------------|---5--------------------|
E|----------------------|------------------------|-----------------------|------------------------|


       Let's craft     the on    ly    thing we   know   in   to     sur   prise

e|----------------------|-----------------------|------------------------|------------------------|
B|-------7----------7---|--------7----------7---|---------7----------7---|---------7----------7---|
G|----0----0-----0-----0|-----0----0-----0-----0|------0----0-----0-----0|------0----0-----0-----0|
D|----------------------|-----------------------|------------------------|--------------7---------|
A|----------------------|-----------------------|------------------------|-5----------------------|
E|3----------5----------|-7----------5----------|--3----------5----------|------------------------|

Repeat with the other verses.
Tap to rate this tab
# A B C D E F G H I J K L M N O P Q R S T U V W X Y Z