Snow Patrol - If Theres A Rocket Tie Me To It tab

-------------------------------------------------------------------------------
               If there's a rocket tie me to it - Snow Patrol
-------------------------------------------------------------------------------
Tabbed by:Tomhotspur94


Tuning:Standard

Intro and Verses
                             
e|---------------------------------------------------------------------------|
B|---------------------------------------------------------------------------|
G|--------5----------5----------5----------5---------------------------------|
D|------------5----------5---------5----------5------------------------------|
A|---------------------------------------------------------------------------|
E|--------5----------5----------5----------5---------------------------------|
                              
e|---------------------------------------------------------------------------|
B|---------------------------------------------------------------------------|
G|--------5----------5----------5----------5---------------------------------|
D|-----------5----------5----------5----------5------------------------------|
A|---------------------------------------------------------------------------|
E|--------3----------3----------3----------3---------------------------------|

e|---------------------------------------------------------------------------|
B|---------------------------------------------------------------------------|
G|--------5----------5----------5----------5---------------------------------|
D|-----------5----------5----------5----------5------------------------------|
A|--------3----------3----------3----------3---------------------------------|
E|---------------------------------------------------------------------------|

Chorus:

e|-------3------------------------------------0-----------------3------------|
B|-------4------------------------------------0-----------------4------------|
G|-------5------------------------------------5-----------------5------------|
D|-------5------------------------------------5-----------------5------------|
A|-------3------------------------------------0-----------------3------------|
E|--------------4(optional)-------------------5-----------------3------------|

Tap to rate this tab
 
# A B C D E F G H I J K L M N O P Q R S T U V W X Y Z