Song name
# A B C D E F G H I J K L M N O P Q R S T U V W X Y Z

Snow Patrol - Called Out In The Dark chords

Highlighted       Show chord diagrams
ok heres the intro which plays through the whole of the first verse

---------------------------------------------------------------------------|
---------------------------------------------------------------------------|
---------------------------------------------------------------------------|
---------------------------------------------------------------------------|
-3-3--3-3-3--3-------------------------------------------------------------|
---------------5-5--5-0-0--0-1-1--1-1-1--1-1-1--1-1-1----------------------|

repeat through out the whole verse until the pre chorus

pre chorus

AM
show me now, show me the arms aloft
G
Every eye trained on a different star
F
this magic, this drunken semaphore
AM   G
I...

then use the same chords for the chorus

AM               G
We are listening and we're not blind,
F                  AM                G
This is your life, this is your time,
AM               G
We are listening and we're not blind,
F                  AM                G
This is your life, this is your time



the 2nd verse there are two guitars one doing the bass line which is the one in the 
first verse the other i think is doing something like this

----------------------------------------------------------------------------|
----------------------------------------------------------------------------|
----------------------------------------------------------------------------|
-11-11-11-11-11-11-11-11-11-11-11-11-11-11-11-11-11-11-11-11-11-11-11-11-11-|
----------------------------------------------------------------------------|
----------------------------------------------------------------------------|

this may look very inaccurate but if you listen to the song and once u get the rhythm 
right it sounds ok.

last chorus is the same as the first except it fades out at the 2nd
"we are listening" line
then once the chorus has ended it ends with the tab from the 1st verse

---------------------------------------------------------------------------|
---------------------------------------------------------------------------|
---------------------------------------------------------------------------|
---------------------------------------------------------------------------|
-3-3--3-3-3--3-------------------------------------------------------------|
---------------5-5--5-0-0--0-1-1--1-1-1--1-1-1--1-1-1----------------------|


hope this helped srry if i didnt this is my first one :D
(any improvements welcome just email me)
Tap to rate this tab
# A B C D E F G H I J K L M N O P Q R S T U V W X Y Z