Song name
# A B C D E F G H I J K L M N O P Q R S T U V W X Y Z

Snow Patrol - This Isnt Everything You Are Acoustic tab

This is my first tab, i hope you guys like it,

If you see any mistakes please comment, :)



6x INTRO

Guitar 1

E|------------------------------------------------------------|
A|--9---------9---------9-------------9---------9-------------|
D|-----11--------11--------11-----11--------11--------11------|
G|---------8---------8---------9---------9---------9----------|
B|------------------------------------------------------------|
E|------------------------------------------------------------|


E|------------------------------------------------------------|
A|---------11---------11----------------11---------11---------|
D|-----11---------11---------11-----11---------11---------11--|
G|--9----------9----------9------9----------9----------9------|
B|------------------------------------------------------------|
E|------------------------------------------------------------|



1x Middle

Guitar 1

E|--7------4------0----------------------------------------------|
A|--9------6------2----------------------------------------------|
D|--9------6------2----------------------------------------------|
G|---------------------------------------------------------------|
B|---------------------------------------------------------------|
E|---------------------------------------------------------------|

Guitar 2
E|---------------------------------------------------------------|
A|--4------6------9------2---------------------------------------|
D|--x------x------x------x---------------------------------------|
G|--6------8------11-----4---------------------------------------|
B|---------------------------------------------------------------|
E|---------------------------------------------------------------|



2x INTRO

Guitar 1

E|------------------------------------------------------------|
A|--9---------9---------9-------------9---------9-------------|
D|-----11--------11--------11-----11--------11--------11------|
G|---------8---------8---------9---------9---------9----------|
B|------------------------------------------------------------|
E|------------------------------------------------------------|


E|------------------------------------------------------------|
A|---------11---------11----------------11---------11---------|
D|-----11---------11---------11-----11---------11---------11--|
G|--9----------9----------9------9----------9----------9------|
B|------------------------------------------------------------|
E|------------------------------------------------------------|



1x MIDDLE

Guitar 1

E|--7------4------0----------------------------------------------|
A|--9------6------2----------------------------------------------|
D|--9------6------2----------------------------------------------|
G|---------------------------------------------------------------|
B|---------------------------------------------------------------|
E|---------------------------------------------------------------|

Guitar 2
E|---------------------------------------------------------------|
A|--4------6------9------2---------------------------------------|
D|--x------x------x------x---------------------------------------|
G|--6------8------11-----4---------------------------------------|
B|---------------------------------------------------------------|
E|---------------------------------------------------------------|



4x REFR

Guitar 1+2

E|--7------4------2------0---------------------------------------|
A|--9------6------4------2---------------------------------------|
D|--9------6------4------2---------------------------------------|
G|---------------------------------------------------------------|
B|---------------------------------------------------------------|
E|---------------------------------------------------------------|



1x MIDDLE, mute it a little

Guitar 1

E|--7------4------0----------------------------------------------|
A|--9------6------2----------------------------------------------|
D|--9------6------2----------------------------------------------|
G|---------------------------------------------------------------|
B|---------------------------------------------------------------|
E|---------------------------------------------------------------|



2x INTRO

Guitar 1

E|------------------------------------------------------------|
A|--9---------9---------9-------------9---------9-------------|
D|-----11--------11--------11-----11--------11--------11------|
G|---------8---------8---------9---------9---------9----------|
B|------------------------------------------------------------|
E|------------------------------------------------------------|


E|------------------------------------------------------------|
A|---------11---------11----------------11---------11---------|
D|-----11---------11---------11-----11---------11---------11--|
G|--9----------9----------9------9----------9----------9------|
B|------------------------------------------------------------|
E|------------------------------------------------------------|



1x Middle

Guitar 1

E|--7------4------0----------------------------------------------|
A|--9------6------2----------------------------------------------|
D|--9------6------2----------------------------------------------|
G|---------------------------------------------------------------|
B|---------------------------------------------------------------|
E|---------------------------------------------------------------|

Guitar 2
E|---------------------------------------------------------------|
A|--4------6------9------2---------------------------------------|
D|--x------x------x------x---------------------------------------|
G|--6------8------11-----4---------------------------------------|
B|---------------------------------------------------------------|
E|---------------------------------------------------------------|




2x Piano playing, after 2 times you play

Guitar 1+2

1x
E|-0-----7------4------2------0----------------------------------------|
A|-2-----9------6------4------2----------------------------------------|
D|-2-----9------6------4------2----------------------------------------|
G|---------------------------------------------------------------------|
B|---------------------------------------------------------------------|
E|---------------------------------------------------------------------|


5x, after the first time you begin(if you want) with the piano bit.

E|--7------4------2------0---------------------------------------|
A|--9------6------4------2---------------------------------------|
D|--9------6------4------2---------------------------------------|
G|---------------------------------------------------------------|
B|---------------------------------------------------------------|
E|---------------------------------------------------------------|


This is the piano bit, but if you want, you can play it with the second guitar

E|-----------------------------------------------|
B|--9--7--------------------------------------9--|
G|----------6--6--8----6--6--8----11--11(11)-----|
D|-----------------------------------------------|
A|-----------------------------------------------|
E|-----------------------------------------------|
Tap to rate this tab
# A B C D E F G H I J K L M N O P Q R S T U V W X Y Z