Song name
# A B C D E F G H I J K L M N O P Q R S T U V W X Y Z

Snow Patrol - What If The Storm Ends tab

|----------------------------------|
|----------------------------------|
|-3--------3--------3--------3-----|
|---5--------5--------5--------5---|
|----------------------------------|
|-3---3----3---3----3---3----3---3-|

|----------------------------------|
|----------------------------------|
|-3--------3--------3--------3-----|
|---5--------5--------5--------5---|
|----------------------------------|
|-1---1----1---1----1---1----1---1-|

|----------------------------------|     |----------------------------------|
|----------------------------------|     |----------------------------------|
|-3--------3--------3--------3-----| or  |-3--------3--------3--------3-----|
|---5--------5--------5--------5---|play |---5--------5--------5--------5---|
|-7---7----7---7----7---7----7---7-|     |----------------------------------|
|----------------------------------|     |-0---0----0---0----0---0----0---0-|

|----------------------------------|
|----------------------------------|
|-3--------3--------3--------3-----|
|---5--------5--------5--------5---|
|-3---3----3---3----3---3----3---3-|
|----------------------------------|


|-10------6------8-----------------|
|-----------------------6----------|
|----------------------------------|
|----------------------------------|
|----------------------------------|
|----------------------------------|
Tap to rate this tab
# A B C D E F G H I J K L M N O P Q R S T U V W X Y Z