Song name
# A B C D E F G H I J K L M N O P Q R S T U V W X Y Z

Snow Patrol - Set Down Your Glass tab

e|-------2-------2------|
B|----------------------|
G|-----0---0-2-0---0----|
D|---0------------------| x8
A|----------------------|
E|----------------------| 

e|--------2-------2-----|-------2-------2------|
B|----------------------|----------------------|
G|------0---0---0---0---|-----0---0-2-0---0----|
D|----------------------|---0------------------|
A|------------0---------|----------------------|
E|---3------------------|----------------------|

e|-------2-------2------|
B|----------------------|
G|-----0---0-2-0---0----|
D|---0------------------| and again and again....... :D
A|----------------------|
E|----------------------| 

Tap to rate this tab
 
# A B C D E F G H I J K L M N O P Q R S T U V W X Y Z