Song name
# A B C D E F G H I J K L M N O P Q R S T U V W X Y Z

Snow Patrol - What If The Storm Ends tab

I don't know why but every tab of this song that I saw were wrong. It better 
sounds like that, with the capo on 3rd.  



|0-------0-------0-------0-------|
|--0-------0-------0-------0-----|
|----0-------0-------0-------0---|
|--------------------------------|
|--------------------------------|
|0-------0-------0-------0-------|

|0-------0-------0-------0-------|
|--0-------0-------0-------0-----|
|----0-------0-------0-------0---|
|--------------------------------|
|4-------4-------4-------4-------|
|--------------------------------|

|0-------0-------0-------0-------|
|--0-------0-------0-------0-----|
|----0-------0-------0-------0---|
|--------------------------------|
|--------------------------------|
|3-------3-------3-------3-------|

|0-------0-------0-------0-------|
|--0-------0-------0-------0-----|
|----0-------0-------0-------0---|
|--------------------------------|
|0-------0-------0-------0-------|
|--------------------------------|



|7---3---5---0---|
|----------------|
|----------------|
|----------------|
|----------------|
|----------------|
Tap to rate this tab
# A B C D E F G H I J K L M N O P Q R S T U V W X Y Z