Song name
# A B C D E F G H I J K L M N O P Q R S T U V W X Y Z

Snow Patrol - Starfighter Pilot tab

~~~~~~~~~~~~~~~~~~~~~~~~~~~~~~~~~~~~~~~~~~~~~~~~~~~~~~~~~~~~~~~~~~~~~~~~~~~~
||                    SNOW PATROL ~ Starfighter Pilot                     ||
~~~~~~~~~~~~~~~~~~~~~~~~~~~~~~~~~~~~~~~~~~~~~~~~~~~~~~~~~~~~~~~~~~~~~~~~~~~~

Artist: Snow Patrol
Song: Starfighter Pilot
Album: Songs For Polar Bears
Tuning: Standard

It's a pretty easy and very nice song. 


Intro

e|--------------|--------------|--------------|--------------|
B|--------------|--------------|--------------|--------------|
G|--------------|--------------|--------------|--------------|
D|--6--6--6--6--|--6--6--6--6--|--6--6--6--6--|--6--6--6--6--|
A|--6--6--6--6--|--6--6--6--6--|--6--6--6--6--|--6--6--6--6--|
E|--4--4--4--4--|--4--4--4--4--|--4--4--4--4--|--4--4--4--4--| Repeat 4 times



Verse

e|--------------|--------------|--------------|--------------|--------------|--------------|
B|--------------|--------------|--------------|--------------|--------------|--------------|
G|--------------|--------------|--------------|--------------|--------------|--------------|
D|--6--6--6--6--|--6--6--6--6--|--9--9--9--8--|--8--8--7--7--|--6--6--6--6--|--6--6--6--6--|
A|--6--6--6--6--|--6--6--6--6--|--9--9--9--8--|--8--8--7--7--|--6--6--6--6--|--6--6--6--6--|
E|--4--4--4--4--|--4--4--4--4--|--7--7--7--6--|--6--6--5--5--|--4--4--4--4--|--4--4--4--4--|

e|--------------|--------------|--------------|--------------|--------------|--------------|
B|--------------|--------------|--------------|--------------|--------------|--------------|
G|--------------|--------------|--------------|--------------|--------------|--------------|
D|--6--6--6--6--|--6--6--6--6--|--9--9--9--8--|--8--8--7--7--|--6--6--6--6--|--6--6--6--6--|
A|--6--6--6--6--|--6--6--6--6--|--9--9--9--8--|--8--8--7--7--|--6--6--6--6--|--6--6--6--6--|
E|--4--4--4--4--|--4--4--4--4--|--7--7--7--6--|--6--6--5--5--|--4--4--4--4--|--4--4--4--4--|

e|--------------|--------------|--------------|--------------|--------------|--------------|
B|--------------|--------------|--------------|--------------|--------------|--------------|
G|--------------|--------------|--------------|--------------|--------------|--------------|
D|--6--6--6--6--|--6--6--6--6--|--9--9--9--8--|--8--8--7--7--|--6--6--6--6--|--6--6--6--6--|
A|--6--6--6--6--|--6--6--6--6--|--9--9--9--8--|--8--8--7--7--|--6--6--6--6--|--6--6--6--6--|
E|--4--4--4--4--|--4--4--4--4--|--7--7--7--6--|--6--6--5--5--|--4--4--4--4--|--4--4--4--4--|

e|--------------|--------------|--------------|--------------|
B|--------------|--------------|--------------|--------------|
G|--------------|--------------|--------------|--------------|
D|--6--6--6--6--|--6--6--6--6--|--9--9--9--8--|--8--8--7--7--|
A|--6--6--6--6--|--6--6--6--6--|--9--9--9--8--|--8--8--7--7--|
E|--4--4--4--4--|--4--4--4--4--|--7--7--7--6--|--6--6--5--5--|



Chorus


e|--------------|--------------|--------------|--------------|
B|--------------|--------------|--------------|--------------|
G|--------------|--------------|--------------|--------------|
D|--3---3--3-3--|--5---5--5-5--|--7---7--7-7--|-7-7-7-7-7-7--|
A|--3---3--3-3--|--5---5--5-5--|--7---7--7-7--|-7-7-7-7-7-7--|
E|--1---1--1-1--|--3---3--3-3--|--5---5--5-5--|-5-5-5-5-5-5--| Repeat 4 times and then;

e|--------------|--------------|--------------|--------------|
B|--------------|--------------|--------------|--------------|
G|--------------|--------------|--------------|--------------|
D|--5--5--5--5--|--5--5--5--5--|--3--3--3--3--|--3--3--3--3--|
A|--5--5--5--5--|--5--5--5--5--|--3--3--3--3--|--3--3--3--3--|
E|--3--3--3--3--|--3--3--3--3--|--1--1--1--1--|--1--1--1--1--|

e|--------------|--------------|--------------|--------------|
B|--------------|--------------|--------------|--------------|
G|--------------|--------------|--------------|--------------|
D|--2--2--2--2--|--2--2--2--2--|--2--2--2--2--|--2--2--2--2--|
A|--2--2--2--2--|--2--2--2--2--|--2--2--2--2--|--2--2--2--2--|
E|--0--0--0--0--|--0--0--0--0--|--0--0--0--0--|--0--0--0--0--|



Outro

e|--------------|--------------|--------------|--------------|
B|--------------|--------------|--------------|--------------|
G|--------------|--------------|--------------|--------------|
D|--6--6--6--6--|--6--6--6--6--|--6--6--6--6--|--6--6--6--6--|
A|--6--6--6--6--|--6--6--6--6--|--6--6--6--6--|--6--6--6--6--|
E|--4--4--4--4--|--4--4--4--4--|--4--4--4--4--|--4--4--4--4--|

e|--------------|--------------|--------------|--------------|
B|--------------|--------------|--------------|--------------|
G|--------------|--------------|--------------|--------------|
D|--2--2--2--2--|--2--2--2--2--|--2--2--2--2--|--2--2--2--2--|
A|--2--2--2--2--|--2--2--2--2--|--2--2--2--2--|--2--2--2--2--|
E|--0--0--0--0--|--0--0--0--0--|--0--0--0--0--|--0--0--0--0--| And fade out




Order;

Intro
Verse
Chorus
Intro (twice as short)
Verse
Verse
Chorus
Outro


Good luck y'all!
Tap to rate this tab
 
# A B C D E F G H I J K L M N O P Q R S T U V W X Y Z