Song name
# A B C D E F G H I J K L M N O P Q R S T U V W X Y Z

Snow Patrol - Berlin tab

-------------------------------------------------------------------------------
                             BERLIN - Snow Patrol
-------------------------------------------------------------------------------

Standard tuning
Capo 1st fret
fingerpicked

e|------------------------------------------------------------------|
B|--0-----------0---2-----------0---0-----------0---0-------0-------|
G|-----2----------2---------------2----2----------2----2-------2----|
D|--0-----0-------------------------------------------------2-----2-|
A|------------------0---------------2-----2-------------------------|
E|--------------------------------------------------5-----5---------|

repeated throughout.

Other tabs are in a different key. I believe this tab to be accurate to the studio version.
Can't say for sure as they've never performed this live, only played a remix of it over 
their sound system to begin shows.
Tap to rate this tab
# A B C D E F G H I J K L M N O P Q R S T U V W X Y Z