Song name
# A B C D E F G H I J K L M N O P Q R S T U V W X Y Z

Snow Patrol - Grazed Knees tab

Artist: Snow Patrol
Song: Grazed Knees
Album: Final Straw
Tabbed by: Kmilongo (kmilo1989@gmail.com)
Tuning: Standard or Drop D Tuning

Both tabs for this song that are here on UG (version 1 and 2) are great, but nobody has tabbed the 
second guitar doing the little riff in the chorus. Also, I'll tab it both in standard and Drop D 
tuning, because it is a lot easier to play if you tune your guitar to Drop D tuning.

Verse (Standard)

e|-----------------|-----------------|-----------------|-----------------|
B|-----1-----1-----|-----1-----1-----|-----------------|-----------------|
G|-----------------|-----------------|-----------------|-----------------|
D|---3-----3-----3-|---3-----3-----0-|-----3-----3-----|-----3-----3-----|
A|-0-----0-----0---|-1-----1-----1---|---3-----3-----3-|---3-----3-----0-|
E|-----------------|-----------------|-1-----1-----1---|-1-----1-----1---|

Verse (Drop D)

e|-------------------|-------------------|-----------------|-----------------|
B|-------------------|-------------------|-----------------|-----------------|
G|-------------------|-------------------|-----------------|-----------------|
D|-----10-----10-----|-----10-----10---0-|-----3-----3-----|-----3-----3-----|
A|---8------8------8-|---8------8--------|---3-----3-----3-|---3-----3-----0-|
E|-7------7------7---|-8------8------8---|-3-----3-----3---|-3-----3-----3---|

Chorus (Standard)

e|-----------------|------------------|-----------------------|
B|-----------------|------------------|-----------------------|
G|-----5-----5-----|-/----3-----3-----|-----5-----5-------/3~-|
D|---5-----5-----5-|-/--3-----3-----0-|---5-----5-----5---/3~-|
A|-3-----3-----3---|-/1-----1-----1---|-3-----3-----3-----/1~-|
E|-----------------|------------------|-----------------------|

This can be played in both tunings perfectly.

Chorus (Drop D)

e|-------------------------|------------------|-------------------------------|
B|-------------------------|------------------|-------------------------------|
G|-------------------------|------------------|-------------------------------|
D|-------10-------10-------|-/----8-----8---0-|-------10-------10---------/8~-|
A|----10-------10-------10-|-/--8-----8-------|----10-------10-------10---/8~-|
E|-10-------10-------10----|-/8-----8-----8---|-10-------10-------10------/8~-|

This doesn't sound as good as the Chorus above, but I'll add it just for the record.

Chorus Riff (Any tuning)

e|----------------------|
B|----------------------|
G|-3/5-5----------------|
D|--------3--5/7--------|
A|---------------3/5-5~-|
E|----------------------|

You can hear this riff in your left speaker. I think I may have missed a note or two, but it sounds right.

That's it. Cheers to the guys who uploaded version 1 and 2 of this magnificent song, since this tab
was based on those ;)

Anything to add? Please comment!
Tap to rate this tab
# A B C D E F G H I J K L M N O P Q R S T U V W X Y Z