Song name
# A B C D E F G H I J K L M N O P Q R S T U V W X Y Z

Snow Patrol - Somewhere A Clock Is Ticking tab

11. Somewhere A Clock Is Ticking

e--------------------------------------------
b--------------------------------------------
g--------------------------------------------
D-----0---1-----3---1---0-----3----3---0-----
A-1h3---3-----3---3---3---3---3--3---3---3---
E---------------------------1----------------


e-------------------------------------------------------------------
b-------------------------------------------------------------------
g-------------------------------------------------------------------
D-10-10-10-10-10-/-5-5---5/10---10-10/3---3-3-3---3-3---3-3---7-7-7-
A-------------------------------------------------------------------
E-------------------------------------------------------------------

CHORUS
e--------------------------------------
b-4-----3----1-------------------------
g-5-----3----2-------------------------
D-5-----3----3-------------------------
A-3-----1----3-------------------------
E------------1-------------------------

SOLO over chorus chords at the end.

e-------------------------------------
b-16---15---18------------------------
g-x-----x----x------------------------
D-13---12---15------------------------
A-------------------------------------
E-------------------------------------
Tap to rate this tab
# A B C D E F G H I J K L M N O P Q R S T U V W X Y Z